Guitar Tabs for Custom #3

(/) Slide Up  (\) Slide Down  (h) Hammer On  (p) Pull Off  (b) Bend (r) Release (v) Vibrato (x) Muted

Tabs for Song : 
Capo on 3rd Fret

Intro 1 x3
E|--------------------------------------------------------------------------------------------------
B|-----------1-----------------------1-----------------------3-----------------------3--------------
G|--------2-----2-----2-----------0-----0-----0-----------0-----0-----0-----------0-----0-----0-----
D|-----2-----------2-----2-----2-----------2-----2-----------------0-----0-----------------0-----0--
A|--0-----------------------3--------------------------2-----------------------2--------------------
E|--------------------------------------------------3-----------------------3-----------------------

Intro 2 x2
E|--------------------------------------------------------------------------------------------------
B|-----------1-----------------------1-----------------------3-----------------------3--------------
G|--------2-----2-----2-----------0-----0-----0-----------0-----0-----0-----------0-----0-----0-----
D|-----3-----------3-----3-----2-----------2-----2-----------------0-----0-----------------0-----0--
A|--3-----------------------3--------------------------2-----------------------2--------------------
E|--------------------------------------------------3-----------------------3-----------------------

Main x3
E|-----------------------0-----------------------------------------------3--------------------------
B|-----------1-----------------------1-----------------------3-----------------------3--------------
G|--------2-----2-----2-----------0-----0-----0-----------0-----0-----0-----------0-----0-----0-----
D|-----2-----------2-----------2-----------2-----0-----------------0-----------------------0-----0--
A|--0-----------------------3--------------------------2-----------------------2--------------------
E|--------------------------------------------------3-----------------------3-----------------------

E|-----------------------0-----------------------------------------------3--------------------------
B|-----------1-----------------------1-----------------------3-----------------------3--------------
G|--------2-----2-----2-----------0-----0-----0-----------0-----0-----0-----------0-----0-----0-----
D|-----3-----------3-----------2-----------2-----0-----------------0-----------------------0-----0--
A|--3-----------------------3--------------------------2-----------------------2--------------------
E|--------------------------------------------------3-----------------------3-----------------------

Bridge x2
E|--------------------------------------------------------------------------------------
B|-----------1-----------------------------------------------1--------------------------
G|--------2-----0-----0--------------------0--------------2-----0-----0-----------------
D|-----2-----------2-----2--------------------0--------2-----------2-----2--------------
A|--0--------------------------------2--------------0-----------------------------------
E|--------------------------3-----------------------------------------------3-----------

E|--------------------------------------------------------------------------------------
B|-----------1-----------------------------------------------1--------------------------
G|--------2-----0-----0--------------------0--------------2-----0-----0-----------------
D|-----2-----------2-----2--------------------0--------2-----------2-----2--------------
A|--0--------------------------------2--------------0-----------------------------------
E|--------------------------3-----------------------------------------------3-----------

Chorus
E|-----------------------0-----------------------0-----------------------3-----------------------0--
B|-----------1-----------0-----------1-----------0-----------0-----------3-----------3-----------0--
G|--------2-----2-----2--0--------2-----2-----2--0--------0-----0-----0-----------0-----0-----0--0--
D|-----2-----------2-----------3-----------3-----------------------2-----------------------0--------
A|--0-----------------------3--------------------------2-----------------------2--------------------
E|--------------------------------------------------0-----------------------3-----------------------

E|-----------------------0-----------------------0-----------------------3-----------------------0--
B|-----------1-----------0-----------1-----------0-----------0-----------3-----------3-----------0--
G|--------2-----2-----2--0--------2-----2-----2--0--------0-----0-----0-----------0-----0-----0--0--
D|-----2-----------2-----------3-----------3-----------------------2-----------------------0--------
A|--0-----------------------3--------------------------2-----------------------2--------------------
E|--------------------------------------------------0-----------------------3-----------------------

E|-----------------------0--
B|-----------3-----------0--
G|--------0-----0-----0--0--
D|-----------------0--------
A|-----2--------------------
E|--3-----------------------

E|-----------------------0--
B|-----------3-----------0--
G|--------0-----0-----0--0--
D|-----------------0--------
A|-----2--------------------
E|--3-----------------------

E|-----------------------0--
B|-----------3-----------0--
G|--------0-----0-----0--0--
D|-----------------0--------
A|-----2--------------------
E|--3-----------------------

E|--------------------------------------------------------------------------
B|--------------------------------------------------------------------------
G|--0-----------------------0-----------------------0-----------------------
D|--0-----------------------0-----------------------0-----------------------
A|--2--2--2--2--2--2--2--2--2--2--2--2--2--2--2--2--2--2--2--2--2--2--2--2--
E|--3--3--3--3--3--3--3--3--3--3--3--3--3--3--3--3--3--3--3--3--3--3--3--3--

E|--------------------------
B|--------------------------
G|--------------------------
D|--------------------------
A|--2--2-----2--2-----2--2--
E|--3--3-----3--3-----3--3--

E|--------------------------------------------------------------------------------------------------
B|--------------1-----------------------1-----------------------3-----------------------3-----------
G|--------------2-----------------------0-----------------------0-----------------------0-----------
D|--------------2-----------2--2--2--2--2--2--2--2--------------0-----------------------0-----------
A|--0--0--0--0--0--0--0--0--3--3--3--3--3--3--3--3--2--2--2--2--2--2--2--2--2--2--2--2--2--2--2--2--
E|--0--0--0--0--0--0--0--0--------------------------3--3--3--3--3--3--3--3--3--3--3--3--3--3--3--3--

E|-----------1--------------------------------------------------------------------------------------
B|-----------1-----------------------1--------------------------3-----------------------3-----------
G|-----------2-----------------------0--------------------------0-----------------------0-----------
D|--3--3--3--3--3--3--3--3--2--2--2--2--2--2--2--2--------------0-----------------------0-----------
A|--3--3--3--3--3--3--3--3--3--3--3--3--3--3--3--3--2--2--2--2--2--2--2--2--2--2--2--2--2--2--2--2--
E|--------------------------------------------------3--3--3--3--3--3--3--3--3--3--3--3--3--3--3--3--

E|--0--0--0--0--0--x--x--0--1--1--1--1--1--x--x--0--0--0--0--0--0--x--x--0--3--3--3--3--3--x--x--0--
B|--1--1--1--1--1--x--x--0--1--1--1--1--1--x--x--0--0--0--0--0--0--x--x--0--3--3--3--3--3--x--x--0--
G|--2--2--2--2--2--x--x--0--2--2--2--2--2--x--x--0--0--0--0--0--0--x--x--0--0--0--0--0--0--x--x--0--
D|--2--2--2--2--2--x--x-----3--3--3--3--3--x--x-----2--2--2--2--2--x--x-----0--0--0--0--0--x--x-----
A|--0--0--0--0--0--x--x-----3--3--3--3--3--x--x-----2--2--2--2--2--x--x-----2--2--2--2--2--x--x-----
E|--0--0--0--0--0--x--x--------------------x--x-----0--0--0--0--0--x--x-----3--3--3--3--3--x--x-----

E|--0--0--0--0--0--x--x--0--1--1--1--1--1--x--x--0--0--0--0--0--0--x--x--0--3--3--3--3--3--x--x--0--
B|--1--1--1--1--1--x--x--0--1--1--1--1--1--x--x--0--0--0--0--0--0--x--x--0--3--3--3--3--3--x--x--0--
G|--2--2--2--2--2--x--x--0--2--2--2--2--2--x--x--0--0--0--0--0--0--x--x--0--0--0--0--0--0--x--x--0--
D|--2--2--2--2--2--x--x-----3--3--3--3--3--x--x-----2--2--2--2--2--x--x-----0--0--0--0--0--x--x-----
A|--0--0--0--0--0--x--x-----3--3--3--3--3--x--x-----2--2--2--2--2--x--x-----2--2--2--2--2--x--x-----
E|--0--0--0--0--0--x--x--------------------x--x-----0--0--0--0--0--x--x-----3--3--3--3--3--x--x-----

Paste any tab in acousterr's tab maker and we'll play it !!!
Now supports capo and sound effects for vibrato/pull-off/hammer/bends/mutes etc !!! Checkout help section
tabs and chords, guitar tabs, music transcription, music technology, deep learning, music information retrieval, transcribe into tabs & chords, chordify, music renditions, songsterr, reverbnation, tabulature, bollywood chords, ultimate guitar, yousician, guitar lessons, acoustic guitar, electric guitar, guitar tuner, 911 tabs