Crying Red Drop - Mr. Bridge - Guitar Tabs

Guit1
    
                                                                                                                                                                                                                                                                                                                                                                                                                                                                                                                                                                                                                                                                                                                                                                                                                                                                                                                                                                                                                                                                                                                                                                                              
E|-------------------------|-----------------------|
B|-------------------------|-----------------------|
G|-------------------------|-----------------------|
D|--4--------2--------7----|---7--------5----------|
A|--2--x--x--0--x--x--5--x-|x--5--x--x--3--x--x--x-|
E|-----x--x-----x--x-----x-|x-----x--x-----x--x--x-|

    
                                                                                                                                                                                                                                                                                                                                                                                                                                                                                                                                                                                                                                                                                                                                                                                                                                                                                                                                                                                                                                                                                                                                                                                              
E|-------------------------|-----------------------|
B|-------------------------|-----------------------|
G|-------------------------|-----------------------|
D|--4--------2--------7----|---7-------------------|
A|--2--x--x--0--x--x--5--x-|x--5--x--x--7--5-------|
E|-----x--x-----x--x-----x-|x-----x--x--------7--5-|

    
                                                                                                                                                                                                                                                                                                                                                                                                                                                                                                                                                                                                                                                                                                                                                                                                                                                                                                                                                                                                                                                                                                                                                                                              
E|-------------------------|-----------------------|
B|-------------------------|-----------------------|
G|-------------------------|-----------------------|
D|--4--------2--------7----|---7--------5----------|
A|--2--x--x--0--x--x--5--x-|x--5--x--x--3--x--x--x-|
E|-----x--x-----x--x-----x-|x-----x--x-----x--x--x-|

    
                                                                                                                                                                                                                                                                                                                                                                                                                                                                                                                                                                                                                                                                                                                                                                                                                                                                                                                                                                                                                                                                                                                                                                                              
E|-------------------------|-----------------------|
B|-------------------------|-----------------------|
G|-------------------------|-----------------------|
D|--4--------2--------7----|---7-------------------|
A|--2--x--x--0--x--x--5--x-|x--5--x--x--7--5-------|
E|-----x--x-----x--x-----x-|x-----x--x--------7--5-|

    
                                                                                                                                                                                                                                                                                                                                                                                                                                                                                                                                                                                                                                                                                                                                                                                                                                                                                                                                                                                                                                                                                                                                                                                              
E|-------------------------|-----------------------|
B|-------------------------|-----------------------|
G|-------------------------|-----------------------|
D|--4--------2--------7----|---7--------5----------|
A|--2--x--x--0--x--x--5--x-|x--5--x--x--3--x--x--x-|
E|-----x--x-----x--x-----x-|x-----x--x-----x--x--x-|

    
                                                                                                                                                                                                                                                                                                                                                                                                                                                                                                                                                                                                                                                                                                                                                                                                                                                                                                                                                                                                                                                                                                                                                                                              
E|-------------------------|-----------------------|
B|-------------------------|-----------------------|
G|-------------------------|-----------------------|
D|--4--------2--------7----|---7-------------------|
A|--2--x--x--0--x--x--5--x-|x--5--x--x--7--5-------|
E|-----x--x-----x--x-----x-|x-----x--x--------7--5-|

    
                                                                                                                                                                                                                                                                                                                                                                                                                                                                                                                                                                                                                                                                                                                                                                                                                                                                                                                                                                                                                                                                                                                                                                                              
E|-------------------------|-----------------------|
B|-------------------------|-----------------------|
G|-------------------------|-----------------------|
D|--4--------2--------7----|---7--------5----------|
A|--2--x--x--0--x--x--5--x-|x--5--x--x--3--x--x--x-|
E|-----x--x-----x--x-----x-|x-----x--x-----x--x--x-|

    
                                                                                                                                                                                                                                                                                                                                                                                                                                                                                                                                                                                                                                                                                                                                                                                                                                                                                                                                                                                                                                                                                                                                                                                              
E|-------------------------|-----------------------|
B|-------------------------|-----------------------|
G|-------------------------|-----------------------|
D|--4--------2--------7----|---7-------------------|
A|--2--x--x--0--x--x--5--x-|x--5--x--x--7--5-------|
E|-----x--x-----x--x-----x-|x-----x--x--------7--5-|

    
                                                                                                                                                                                                                                                                                                                                                                                                                                                                                                                                                                                                                                                                                                                                                                                                                                                                                                                                                                                                                                                                                                                                                                                              
E|-------------------------|-----------------------|
B|-------------------------|-----------------------|
G|-------------------------|-----------------------|
D|--4--------2--------7----|---7--------5----------|
A|--2--x--x--0--x--x--5--x-|x--5--x--x--3--x--x--x-|
E|-----x--x-----x--x-----x-|x-----x--x-----x--x--x-|

    
                                                                                                                                                                                                                                                                                                                                                                                                                                                                                                                                                                                                                                                                                                                                                                                                                                                                                                                                                                                                                                                                                                                                                                                              
E|-------------------------|-----------------------|
B|-------------------------|-----------------------|
G|-------------------------|-----------------------|
D|--4--------2--------7----|---7-------------------|
A|--2--x--x--0--x--x--5--x-|x--5--x--x--7--5-------|
E|-----x--x-----x--x-----x-|x-----x--x--------7--5-|

    
                                                                                                                                                                                                                                                                                                                                                                                                                                                                                                                                                                                                                                                                                                                                                                                                                                                                                                                                                                                                                                                                                                                                                                                              
E|-------------------------|-----------------------|
B|-------------------------|-----------------------|
G|-------------------------|-----------------------|
D|--4--------2--------7----|---7--------5----------|
A|--2--x--x--0--x--x--5--x-|x--5--x--x--3--x--x--x-|
E|-----x--x-----x--x-----x-|x-----x--x-----x--x--x-|

    
                                                                                                                                                                                                                                                                                                                                                                                                                                                                                                                                                                                                                                                                                                                                                                                                                                                                                                                                                                                                                                                                                                                                                                                              
E|-------------------------|-----------------------|
B|-------------------------|-----------------------|
G|-------------------------|-----------------------|
D|--4--------2--------7----|---7-------------------|
A|--2--x--x--0--x--x--5--x-|x--5--x--x--7--5-------|
E|-----x--x-----x--x-----x-|x-----x--x--------7--5-|

    
                                                                                                                                                                                                                                                                                                                                                                                                                                                                                                                                                                                                                                                                                                                                                                                                                                                                                                                                                                                                                                                                                                                                                                                              
E|-------------------------|-----------------------|
B|-------------------------|-----------------------|
G|-------------------------|-----------------------|
D|--5----------------------|------------5----------|
A|--5----------------------|------5----------------|
E|--3----------------------|3----------------------|

    
                                                                                                                                                                                                                                                                                                                                                                                                                                                                                                                                                                                                                                                                                                                                                                                                                                                                                                                                                                                                                                                                                                                                                                                              
E|-------------------------|-----------------------|
B|-------------------------|-----------------------|
G|-------------------------|-----------------------|
D|--7----------------------|------------7----------|
A|--7----------------------|------7----------------|
E|--5----------------------|5----------------------|

    
                                                                                                                                                                                                                                                                                                                                                                                                                                                                                                                                                                                                                                                                                                                                                                                                                                                                                                                                                                                                                                                                                                                                                                                              
E|-------------------------|-----------------------|
B|-------------------------|-----------------------|
G|-------------------------|-----------------------|
D|-------------------------|-----------------------|
A|--2--------0--------5----|---5--------3----------|
E|-----0--0-----0--0-----0-|0-----0--0-----0--0--0-|

    
                                                                                                                                                                                                                                                                                                                                                                                                                                                                                                                                                                                                                                                                                                                                                                                                                                                                                                                                                                                                                                                                                                                                                                                              
E|-------------------------|-----------------------|
B|-------------------------|-----------------------|
G|-------------------------|-----------------------|
D|-------------------------|-----------------------|
A|--2--------0--------5----|---5--------7--5-------|
E|-----0--0-----0--0-----0-|0-----0--0--------7--5-|

    
                                                                                                                                                                                                                                                                                                                                                                                                                                                                                                                                                                                                                                                                                                                                                                                                                                                                                                                                                                                                                                                                                                                                                                                              
E|-------------------------|-----------------------|
B|-------------------------|-----------------------|
G|-------------------------|-----------------------|
D|-------------------------|-----------------------|
A|--2--------0--------5----|---5--------3----------|
E|-----0--0-----0--0-----0-|0-----0--0-----0--0--0-|

    
                                                                                                                                                                                                                                                                                                                                                                                                                                                                                                                                                                                                                                                                                                                                                                                                                                                                                                                                                                                                                                                                                                                                                                                              
E|-------------------------|-----------------------|
B|-------------------------|-----------------------|
G|-------------------------|-----------------------|
D|-------------------------|-----------------------|
A|--2--------0--------5----|---5--------7--5-------|
E|-----0--0-----0--0-----0-|0-----0--0--------7--5-|

    
                                                                                                                                                                                                                                                                                                                                                                                                                                                                                                                                                                                                                                                                                                                                                                                                                                                                                                                                                                                                                                                                                                                                                                                              
E|-------------------------|-----------------------|
B|-------------------------|-----------------------|
G|-------------------------|-----------------------|
D|-------------------------|-----------------------|
A|--2--------0--------5----|---5--------3----------|
E|-----0--0-----0--0-----0-|0-----0--0-----0--0--0-|

    
                                                                                                                                                                                                                                                                                                                                                                                                                                                                                                                                                                                                                                                                                                                                                                                                                                                                                                                                                                                                                                                                                                                                                                                              
E|-------------------------|-----------------------|
B|-------------------------|-----------------------|
G|-------------------------|-----------------------|
D|-------------------------|-----------------------|
A|--2--------0--------5----|---5--------7--5-------|
E|-----0--0-----0--0-----0-|0-----0--0--------7--5-|

    
                                                                                                                                                                                                                                                                                                                                                                                                                                                                                                                                                                                                                                                                                                                                                                                                                                                                                                                                                                                                                                                                                                                                                                                              
E|-------------------------|-----------------------|
B|-------------------------|-----------------------|
G|-------------------------|-----------------------|
D|-------------------------|-----------------------|
A|--2--------0--------5----|---5--------3----------|
E|-----0--0-----0--0-----0-|0-----0--0-----0--0--0-|

    
                                                                                                                                                                                                                                                                                                                                                                                                                                                                                                                                                                                                                                                                                                                                                                                                                                                                                                                                                                                                                                                                                                                                                                                              
E|-------------------------|-----------------------|
B|-------------------------|-----------------------|
G|-------------------------|-----------------------|
D|-------------------------|-----------------------|
A|--2--------0--------5----|---5--------7--5-------|
E|-----0--0-----0--0-----0-|0-----0--0--------7--5-|

    
                                                                                                                                                                                                                                                                                                                                                                                                                                                                                                                                                                                                                                                                                                                                                                                                                                                                                                                                                                                                                                                                                                                                                                                              
E|-------------------------|-----------------------|
B|-------------------------|-----------------------|
G|-------------------------|-----------------------|
D|--4--------2--------7----|---7--------5----------|
A|--2--x--x--0--x--x--5--x-|x--5--x--x--3--x--x--x-|
E|-----x--x-----x--x-----x-|x-----x--x-----x--x--x-|

    
                                                                                                                                                                                                                                                                                                                                                                                                                                                                                                                                                                                                                                                                                                                                                                                                                                                                                                                                                                                                                                                                                                                                                                                              
E|-------------------------|-----------------------|
B|-------------------------|-----------------------|
G|-------------------------|-----------------------|
D|--4--------2--------7----|---7-------------------|
A|--2--x--x--0--x--x--5--x-|x--5--x--x--7--5-------|
E|-----x--x-----x--x-----x-|x-----x--x--------7--5-|

    
                                                                                                                                                                                                                                                                                                                                                                                                                                                                                                                                                                                                                                                                                                                                                                                                                                                                                                                                                                                                                                                                                                                                                                                              
E|-------------------------|-----------------------|
B|-------------------------|-----------------------|
G|-------------------------|-----------------------|
D|--4--------2--------7----|---7--------5----------|
A|--2--x--x--0--x--x--5--x-|x--5--x--x--3--x--x--x-|
E|-----x--x-----x--x-----x-|x-----x--x-----x--x--x-|

    
                                                                                                                                                                                                                                                                                                                                                                                                                                                                                                                                                                                                                                                                                                                                                                                                                                                                                                                                                                                                                                                                                                                                                                                              
E|-------------------------|-----------------------|
B|-------------------------|-----------------------|
G|-------------------------|-----------------------|
D|--4--------2--------7----|---7-------------------|
A|--2--x--x--0--x--x--5--x-|x--5--x--x--7--5-------|
E|-----x--x-----x--x-----x-|x-----x--x--------7--5-|

About Adrien Brody - Adrien Brody won Academy Award for Best Actor at age twenty-nine . Brody is the second male American actor to receive the C├ęsar Award . Brody has starred in The Thin Red Line (1998), The Village (2004), King Kong (2005), and Predators (2010) Brody is a frequent collaborator of Wes Anderson's films . In 2017, he appeared in the fourth series of the BBC historical drama Peaky Blinders.

tabs and chords, guitar tabs, music transcription, music technology, deep learning, music information retrieval, transcribe into tabs & chords, chordify, music renditions, songsterr, reverbnation, tabulature, bollywood chords, ultimate guitar, yousician, guitar lessons, acoustic guitar, electric guitar, guitar tuner, 911 tabs