Guitar Tabs for Critical Role - Your Turn To Roll

(/) Slide Up  (\) Slide Down  (h) Hammer On  (p) Pull Off  (b) Bend (r) Release (v) Vibrato (x) Muted

Tabs for Song : 
BPM : 200

Song lyrics here 
E|--------------------------------------------------------------------------------------------
B|--------------------------------------------------------------------------------------------
G|-----------------13-------------------14-13-------------------13-------------------14-13----
D|--11h13-14-13-11-------11h13-14-13-11----------11h13-14-13-11-------11h13-14-13-11----------
A|--------------------------------------------------------------------------------------------
E|--------------------------------------------------------------------------------------------
                                                                
E|-----------------------------------------------
B|-----------------------------------------------
G|--11h13-14-13-11-13-11----11----------11h13----
D|-----------------------14----14-13-14----------
A|-----------------------------------------------
E|-----------------------------------------------
Ending 1
E|-----------------------------------------
B|-----------------------------------------
G|--11h13-14-13-11-13-11----11-------------
D|-----------------------14----14-13-11----
A|-----------------------------------------
E|--------------------------------------------
Ending 2
E|--------------------------------------
B|-----------------------------13-13-14-
G|--11h13-14-13-11-13-11----11----------
D|-----------------------14-------------
A|--------------------------------------
E|--------------------------------------

E|-----------------------------------------------------------------
B|-----------------------------------------------------------------
G|--11h13-14-13-11-13----11h13-14-13-11-13----11h13-14-13-11-13----
D|-----------------------------------------------------------------
A|-----------------------------------------------------------------
E|-----------------------------------------------------------------

E|-----------------
B|-----------------
G|--11h13-14-13----
D|-----------------
A|-----------------
E|-----------------

-

Song lyrics here 
E|--
B|--
G|--
D|--
A|--
E|--

Use manual mode to free up cursor. Paste any tab in acousterr tab maker and we'll play it !!!






Guitar Tabs for Critical Role - Your Turn To Roll






E|-----------------------------
B|-----------------------------
G|-----------------------------
D|-----------------------------
A|-----------------------------
E|--5-----------3--------------

E|--
B|--
G|--
D|--
A|--
E|--

E|--
B|--
G|--
D|--
A|--
E|--

E|--
B|--
G|--
D|--
A|--
E|--

E|--
B|--
G|--
D|--
A|--
E|--

E|--
B|--
G|--
D|--
A|--
E|--




E|--
B|--
G|--
D|--
A|--
E|--











tabs and chords, guitar tabs, music transcription, music technology, deep learning, music information retrieval, transcribe into tabs & chords, chordify, music renditions, songsterr, reverbnation, tabulature, bollywood chords, ultimate guitar, yousician, guitar lessons, acoustic guitar, electric guitar, guitar tuner, 911 tabs