Bass Tabs for Creedence Clearwater Revival - Proud Mary

Creedence Clearwater Revival - Proud Mary

Intro
G|-----------------------------------------------------------------------------------------------------
D|-----------------------------------------5--3--3--3--3--3--------------------------------------------
A|--3--3-----------3--3-----------3--3----------------------5----5-----5--5--5-----5-----5--5--5------
E|--------5--5--5--------5--5--5--------5----------------------------------------------------------5---

Verse 
G|--------------------------------------------------------------------------------------------------------------
D|--------------------------------------------------------------------------------------------------------------
A|--5-----5--5--5-----5-----5--5--5-----5-----5--5--5-----5-----5--5--5--------5-----5--5--5-----5-----5--5--5--
E|--------------------------------------------------------------------------5-----------------------------------

G|-----------------------------------
D|--------------------------4--5--6--
A|--5-----5--5--5-----5--5-----------
E|-----------------------------------

Pre-Chorus
G|--------------------------------------------------------
D|--7--7--------7--7--------9--9--------9--9--------------
A|--------7--7--------7--7--------9--9--------9--9-----9--
E|--------------------------------------------------------

Chorus
G|-----------------------------------------------------------------------
D|--------------------------------------------------------------4--5--6--
A|--5-----5--5--5-----5-----5--5--5-----5-----5--5--5-----5--5-----------
E|-----------------------------------------------------------------------

Guitar Solo
G|--------------------------------------------------------------------------------------------------------------
D|--------------------------------------------------------------------------------------------------------------
A|--5-----5--5--5-----5-----5--5--5-----5-----5--5--5-----5-----5--5--5--------5-----5--5--5-----5-----5--5--5--
E|--------------------------------------------------------------------------5-----------------------------------

G|-----------------------------------------------------------------------------------------------
D|--------------------------4--5--6--7--7--------7--7-----------7--9--9--------9--9--------------
A|--5-----5--5--5-----5--5-----------------7--7--------7-----7-----------9--9--------9--9-----9--
E|--------------------------------------------------------5--------------------------------------

G|--------------11----------
D|--------9--9-----9-----9--
A|-----9--------------9-----
E|--7-----------------------

Pre-Chorus Variation
G|--------------------------------------------------------------------
D|--7--7--------7--7-----7-----7---7/9--9-----------9--------9-----9--
A|--------7--7--------7-----7--------------9--9--9-----9--9-----9-----
E|--------------------------------------------------------------------



tabs and chords, guitar tabs, music contests, music covers, songsterr, reverbnation, renditions, tabulature, bollywood chords, ultimate guitar, yousician, guitar lessons, torrins, fender, gibson, acoustic guitar, electric guitar, youtube covers, gootar, guitar tuner, A-Z tabs, 911 tabs