Bass Tabs for Creedence Clearwater Revival - Have You Ever Seen The Rain?

Creedence Clearwater Revival - Have You Ever Seen The Rain?

Intro
G|--------------------------5--4--2--0--0--
D|--7--5-----------------------------------
A|--------7--7-----3--3--3-----------------
E|--------------3--------------------------

Verse
G|---------------------------------------------------------------------6/7------------6/7--------------------------
D|------------4/5------------4/5------------4/5--------2--3--5--5--5--------5--5--5-------------4/5---------4/5----
A|--3--3--3-------3--3--3-------3--3--3-------3--3--------------------------------------3--3--3-----3--3--3--------
E|-----------------------------------------------------------------------------------------------------------------

Pre-Chorus/Verse End
G|----------------------------/------------------
D|-----------4/5-----------2--/------------0--2--
A|--3--3--3--------3--3--3----/---3--3--3--------
E|----------------------------/------------------

Chorus
G|--------------------5--5--4--4--2--2--0--0--
D|--3--3--3--5--5--5--------------------------
A|--------------------------------------------
E|--------------------------------------------

Chorus End
G|--------------------------------------5--4--2--0--0--
D|--3--3--3--5--5--5---------4/5---4/5-----------------
A|--------------------3--3-----------------------------
E|-----------------------------------------------------

Final
G|--------------------------------------------------------------
D|--3--3--3--3--5--5--5--5---------4/5---4/5--7--5--------------
A|--------------------------3--3--------------------7--7-----3~~
E|--------------------------------------------------------3-----
tabs and chords, guitar tabs, music contests, music covers, songsterr, reverbnation, renditions, tabulature, bollywood chords, ultimate guitar, yousician, guitar lessons, torrins, fender, gibson, acoustic guitar, electric guitar, youtube covers, gootar, guitar tuner, A-Z tabs, 911 tabs