Bass Tabs for Creedence Clearwater Revival - Bad Moon Rising

Creedence Clearwater Revival - Bad Moon Rising

G|--------------------------------------------
D|--------------------------------------------  4x
A|--5-----5--------------5-----5-----5-----5--
E|--------------5--3--------------------------

G|-----------------------------------------------------------------------
D|-----------------------------------------------------------------------
A|--------------------5--5-----5--5-----------------------5--5-----5--5--
E|--3--3-----3--3-----------------------5--5-----5--3--------------------

tabs and chords, guitar tabs, music transcription, music technology, deep learning, music information retrieval, transcribe into tabs & chords, chordify, music renditions, songsterr, reverbnation, tabulature, bollywood chords, ultimate guitar, yousician, guitar lessons, acoustic guitar, electric guitar, guitar tuner, 911 tabs