Bass Tabs for Crazy On You (heart)

(/) Slide Up  (\) Slide Down  (h) Hammer On  (p) Pull Off  (b) Bend (r) Release (v) Vibrato (x) Muted

4-string Bass Tabs for "Crazy on You" by Heart. Standard EADG tuning.

INTRO:  (after long
   guitar solo intro)     CHORUS:
G|----------------------  |------9--7--------------|----|-----
D|-7---------7----------  |o--7--------10-9--7-----|----|-----
A|------8---------8--10-  |o--------------------10-|..8-|..10-
E|----------------------  |------------------------|----|-----
                                              1st   2nd   3rd
VERSE:
G|---------------------------------------     |---------7h9--
D|o--7-----7\------2---0---3-0-2---4---6- X   |o--7--7------- X
A|o------7----3------3------------------- 2   |o------------- 2
E|---------------------------------------     |--------------

PRE-CHORUS: 
G|-------------------------------------------------   CHORUS,
D|-0---2-----0-2-3----2---0--0-------0-0--2--4--6--    VERSE 2,
A|---------3------------3----------0---------------     PRE-CH,
E|-------------------------------------------------      CHORUS

BRIDGE:
G|--------------------  |----------------------------
D|-4------4---0---0-0-  |o-------9-7-9-7-6-7-0---0--- X
A|------4---4---------  |o--------------------------- 2
E|--------------------  |----9-----------------------

G|---------------------------------------------------  CHORUS,
D|-----9-7-9-7-6-7-4---4----------7..-----------4--6-   VERSE 3,
A|------------------------2---2--------7..---7-------    2xCHORUS,
E|-9-------------------------------------------------     BRIDGE

CHORUS repeated for outro

G|--------
D|---7r---  END
A|--------  NOTE
E|--------

 
 
G|--
D|--
A|--
E|--

Use manual mode to free up cursor. Paste any tab in acousterr tab maker and we'll play it !!!
tabs and chords, guitar tabs, music transcription, music technology, deep learning, music information retrieval, transcribe into tabs & chords, chordify, music renditions, songsterr, reverbnation, tabulature, bollywood chords, ultimate guitar, yousician, guitar lessons, acoustic guitar, electric guitar, guitar tuner, 911 tabs