Bass Tabs for Cowboy Take Me Away

Intro (no bass)
Verse 1 (no bass for first half)

("I wanna sleep on the hard ground...")
G|-----------------------------------------------------
D|-----------------------------------------------------
A|--7--9--10----7--9--10----7--9--10----------3--2--5--
E|-----------------------------------8--5--------------

CHORUS
G|--------------------------------------------------------------------------------------
D|-----------------------------2--2--------------------------------------2--------------
A|-----2-----3--5-----5--5-----------3--3--5--------2-----3--5-----5--5-----2--3--3--5--
E|--3-----5--------------------------------------3-----5--------------------------------

Post-Chorus
G|-----------------------------------9--7--
D|--10-9--------10-9--------10-9-----------
A|--------10----------10----------10-------
E|-----------------------------------------


Verse 2 ("I wanna walk and not run...")
G|-----------------------------------------
D|-----------------------------------------
A|--7--9--10----7--9--10----7--9--10-------
E|-----------------------------------8--5--

G|--------------------------------------------------------------------
D|--------------------------------------------------------------------
A|--7--9--10----7--9--10----7--9--10----------3--2--5-----3--2---5/17-
E|-----------------------------------8--5-----------------------------

CHORUS (x2)
G|--------------------------------------------------------------------------------------
D|-----------------------------2--2--------------------------------------2--------------
A|-----2-----3--5-----5--5-----------3--3--5--------2-----3--5-----5--5-----2--3--3--5--
E|--3-----5--------------------------------------3-----5--------------------------------

G|--------------------------------------------------------------------------------------
D|-----------------------------2--2--------------------------------------2--------------
A|-----2-----3--5-----5--5-----------3--3--5--------2-----3--5-----5--5-----2--3--3--5--
E|--3-----5--------------------------------------3-----5--------------------------------



Verse 3 ("I said I wanna touch the earth...")
G|--------------------------------------------------------
D|--------------------------------------10-7--------------
A|--7--9--10----7--9--10----7--9--10-------------3--2--5--
E|--------------------------------------------------------

CHORUS (until end)
G|--------------------------------------------------------------------------------------
D|-----------------------------2--2--------------------------------------2--------------
A|-----2-----3--5-----5--5-----------3--3--5--------2-----3--5-----5--5-----2--3--3--5--
E|--3-----5--------------------------------------3-----5--------------------------------

G|--------------------------------------------------------------------------------
D|--------------------------------------------------------------------------------
A|-----2-----3--5-----5--5--------2-----3--5-----5--5--------2-----3--5-----5--5--
E|--3-----5--------------------3-----5--------------------3-----5-----------------

G|--------------------
D|-----2--------------
A|--------2--3--3--5--
E|--------------------

tabs and chords, guitar tabs, music transcription, music technology, deep learning, music information retrieval, transcribe into tabs & chords, chordify, music renditions, songsterr, reverbnation, tabulature, bollywood chords, ultimate guitar, yousician, guitar lessons, acoustic guitar, electric guitar, guitar tuner, 911 tabs