Guitar Tabs for Covered In Rain

(/) Slide Up  (\) Slide Down  (h) Hammer On  (p) Pull Off  (b) Bend (r) Release (v) Vibrato (x) Muted


Song lyrics here 
E|--------x-----------------------------------x--------------------x--------x-----------
B|-----3--x-----------------3--------------10-x--------11-------11-x--10----x--10-------
G|--0--0--x-----0--------0--------------------x--------------------x--------x-----------
D|--3--3--x-----3-----3-----------------10-10-x--------------10----x-----10-x-----------
A|--------x-----------------------------------x--------------------x--------x-----------
D|--1-----x--1--1--1-----------1--0--0--8-----x--8--8-----8--------x--8-----x-----0-----

E|--------x-----------------------------------x-----------------x--------x--------------
B|-----3--x--------------3-----------------10-x-----11-------11-x--10----x--10----------
G|--0--0--x-----0-----0-----------0-----------x-----------------x--------x--------------
D|--3--3--x-----3--3-----------3--------10-10-x-----------10----x--------x--10----------
A|--------x-----------------------------------x-----------------x--------x--------------
D|--1-----x--1--1-----------1--------1--8-----x--8-----8--------x-----8--x-----0--------

E|--------------------------------------------------------------------------------------
B|--3--3--3------1h1-----3--3--3--3-----1--------1--1--1-----1---1h1--1--1--1----3------
G|--0--0--0------0h2-----0--0--0--0-----0--------2--2--2-----0---0h2--2--2--2----0------
D|--3--------3--------3--------------3--3--------3--------3-------------------3--3------
A|--------------------------------------------------------------------------------------
D|--------------------------------------------------------------------------------------

E|--------------------------------------------------------------------------------------
B|--3--3--3------1h1-----3--3--3--3-----1--------1--1--1-----1-----1--1--------3--------
G|--0--0--0------0h2-----0--0--0--0-----0--------2--2--2-----0-----0--2--------3--------
D|--3--------3--------3--------------3--3--------3--------3-----------3--------3--------
A|--------------------------------------------------------------------------------------
D|--------------------------------------------------------------------------------------

E|--------------------------------------------------------------------------------------
B|--3-----3--------------------------3-----------------------0--3--3--3--3--3--3--------
G|--3-----3--2--3--2--------0--2--3--2-----0--------------0-----0--0--3--0--3--2--------
D|--3-----3--3--3--3--------3--3--3--3--------3--1--0--0--------------------------------
A|--------------------------------------------------------------------------------------
D|--------------------------------------------------------------------------------------

E|-----------------------------------------------------
B|--3--------1-----1-----1-----------------------------
G|--0--------0--2--0-----0-----0--2--------------------
D|-----3-----3--------3-----3-----3--------------------
A|-----------------------------------------------------
D|-----------------------------------------------------
tabs and chords, guitar tabs, music transcription, music technology, deep learning, music information retrieval, transcribe into tabs & chords, chordify, music renditions, songsterr, reverbnation, tabulature, bollywood chords, ultimate guitar, yousician, guitar lessons, acoustic guitar, electric guitar, guitar tuner, 911 tabs