Guitar Tabs for Comptine D'un Autre Été - Left Hand

(/) Slide Up  (\) Slide Down  (h) Hammer On  (p) Pull Off  (b) Bend (r) Release (v) Vibrato (x) Muted

Tabs for Song : 
BPM : 200

Song lyrics here 
E|--------------------------x--------------------------x--------------------------x--
B|--------------------------x--------------------------x--------------------------x--
G|--------------------------x--------------------------x--------------------------x--
D|--2-----2-----2-----2-----x--0-----0-----0-----0-----x--0-----0-----0-----0-----x--
G|-----2-----2-----2-----2--x-----2-----2-----2-----2--x-----2-----2-----2-----2--x--
D|--2-----5-----2-----5-----x--0-----5-----0-----5-----x--0-----4-----0-----4-----x--

E|--------------------------
B|--------------------------
G|--------------------------
D|--0-----0-----0-----0-----
G|-----0-----0-----0-----0--
D|--0-----4-----0-----4-----
tabs and chords, guitar tabs, music transcription, music technology, deep learning, music information retrieval, transcribe into tabs & chords, chordify, music renditions, songsterr, reverbnation, tabulature, bollywood chords, ultimate guitar, yousician, guitar lessons, acoustic guitar, electric guitar, guitar tuner, 911 tabs