Guitar Tabs for Coming Like A Thief

(/) Slide Up  (\) Slide Down  (h) Hammer On  (p) Pull Off  (b) Bend (r) Release (v) Vibrato (x) Muted

Coming Like a Thief -- Frank Manzi

Capo on 1st Fret

(Intro)
E|--------------------------------------------------------------------------------------------------------------
B|--------------------------------------------------------------------------------------------------------------
G|--------------------------------------------------------------------------------------------------------------
D|-----------2-----------2-----------2--2--2-----------2-----------2-----------2-----------2--2--2-----------2--
A|-----2--4--------2--4--------2--4--------------2--4--------2--4--------2--4--------2--4--------------2--4-----
E|--0-----------0-----------0-----------------0-----------0-----------0-----------0-----------------0-----------


I was dressed in black      You were wearing white  Coming like a thief     Thief in the night
E|--------------------------------------------------------------------------------------------------
B|--------------------------------------------------------------------------------------------------
G|-----------------------------------------------------------------------------------2--------------
D|-----------2-----------2-----------2-----------2-----------2-----------2--------------------------
A|-----2--4--------2--4--------2--4--------2--4--------2--4--------2--4--------2--4-----------------
E|--0-----------0-----------0-----------0-----------0-----------0-----------0-----------------------

I'm coming like a thief        A thief in the night----------------
E|--------------------------------------------------------------------------------------------------
B|--------------------------------------------------------------------------------------------------
G|--------------------------------------------------------------------------------------------------
D|--------2--------2--------2--------2-----------------2-----------2-----------2--2--2-----------2--
A|-----4--------4--------2-----0--2-----2--------2--4--------2--4--------2--4--------------2--4-----
E|--2--------2--------3-----------------------0-----------0-----------0-----------------0-----------

Coming like a thief         Coming like a thief in the night                            Mmm---------
E|--------------------------------------------------------------------------------------------------
B|--------------------------------------------------------------------------------------------------
G|-----------------------------------------------2--------------------------------------1-----------
D|--------2-----------2-----------2-----------2--------------2-----------2-----------2-----4--2-----
A|-----4-----------4-----------2--------0--2-----------2--4--------2--4--------2--4-----------------
E|--2-----------2-----------3-----------------------0-----------0-----------0-----------------------

(Interlude to 2nd Verse)
E|--------------------------------------------------------------------------------------------------------------
B|--------------------------------------------------------------------------------------------------------------
G|--------------------------------------------------------------------------------------------------------------
D|-----------2-----------2-----------2--2--2-----------2-----------2-----------2-----------2--2--2-----------2--
A|-----2--4--------2--4--------2--4--------------2--4--------2--4--------2--4--------2--4--------------2--4-----
E|--0-----------0-----------0-----------------0-----------0-----------0-----------0-----------------0-----------

Walking on the rooftops     Looking in the window   Taking off your dress   You were moving so slow
E|--------------------4--------------------------2/4---------------------2--------------------------
B|--------------------------------------------------------------------------------------------------
G|-----------------------------------------------------------------------------------2--------------
D|-----------2-----------2-----------2-----------2-----------2-----------2---------2----------------
A|-----2--4--------2--4--------2--4--------2--4--------2--4--------2--4--------2--------------------
E|--0-----------0-----------0-----------0-----------0-----------0-----------0-----------------------

Moving like a thief            A thief in the night----------------
E|--------------------------------------------------------------------------------------------------
B|--------------------------------------------------------------------------------------------------
G|--------------------------------------2-----------------------------------------------------------
D|--------2--------2--------2--------2-----------------2-----------2-----------2--2--2-----------2--
A|-----4--------4--------2-----0--2--------------2--4--------2--4--------2--4--------------2--4-----
E|--2--------2--------3-----------------------0-----------0-----------0-----------------0-----------

Moving like a thief         Moving like a thief in the night                            Mmm---------
E|--------------------------------------------------------------------------------------------------
B|--------------------------------------------------------------------------------------------------
G|-----------------------------------------------2--------------------------------------1-----------
D|--------2-----------2-----------2-----------2--------------2-----------2-----------2-----4--2-----
A|-----4-----------4-----------2--------0--2-----------2--4--------2--4--------2--4-----------------
E|--2-----------2-----------3-----------------------0-----------0-----------0-----------------------

(Interlude to Bridge)
E|--------------------------------------------------------
B|--------------------------------------------------------
G|--------------------------------------------------------
D|-----------2-----------2-----------2--2--2-----------2--
A|-----2--4--------2--4--------2--4--------------2--4-----
E|--0-----------0-----------0-----------------0-----------

I can hear the sirens
E|--
B|--
G|--
D|--
A|--
E|--




tabs and chords, guitar tabs, music contests, music covers, songsterr, reverbnation, renditions, tabulature, bollywood chords, ultimate guitar, yousician, guitar lessons, torrins, fender, gibson, acoustic guitar, electric guitar, youtube covers, gootar, guitar tuner, A-Z tabs, 911 tabs