Bass Tabs for Combustível, Garrafa, Foguete

(/) Slide Up  (\) Slide Down  (h) Hammer On  (p) Pull Off  (b) Bend (r) Release (v) Vibrato (x) Muted
combustível, garrafa, foguete
Tabs for Song : 
BPM : 200
G|-----
D|-----
A|-----
F|--


Song lyrics here 
G|--------------------------------------------------------------------------------------------------------------------
D|--------------------------------------------------------------------------------------------------------------------
A|--------------------------------------------------------------------------------------------------------------------
F|--7--8--7--8--7--8--7--8--7--8--7--8--7--8--7--8--0--0--0--0--0--0--0--0--0--0--0--0--0--0--0--0--0--0--0--0--0--0--

G|--------------------------------------------------------------------------------------------------------------------
D|--------------------------------------------------------------------------------------------------------------------
A|--9--9--9--9--10-8--------------------9--9--9--9--10-8-----------------------9--9--9--9--10-8-----------------------
F|--------------------------------------------------------------------------------------------------------------------

G|-----------------------------------------
D|-----------------------------------------
A|--9--9--9--9--10-8-----------------------
F|-----------------------------------------

Song lyrics here 
G|--------------------------------------------------------------------------------------------------------
D|--------------------------------------------------------------------------------------------------------
A|--5--3-----------------------------------------------5--3-----------------------------------------------
F|--------2--2--2--2--2--2--2--2--2--2--2--2--2--2--2--------2--2--2--2--2--2--2--2--2--2--2--2--2--2--2--

G|-----------------------------------------------------
D|-----------------------------------------------------
A|--5--3-----------------------------------------------
F|--------2--2--2--2--2--2--2--2--2--2--2--2--2--2--2--

G|-----------------------------------------------------------------------------------------------------------------
D|-----------------------------------------------------------------------------------------------------------------
A|--5--3--------------------------------------------------5--3-----------------------------------------------5--3--
F|--------2--2--2--2--2--2--2--2--2--2--2--2--2--2--2-----------2--2--2--2--2--2--2--2--2--2--2--2--2--2--2--------

G|-----------------------------------------------------------------------------------------------------------------------------------------------
D|-----------------------------------------------------------------------------------------------------------------------------------------------
A|-----------------------9--9--9--9--10-8--------------------------9--9--9--9--10-8-----------------------7--7--7--7--8--6-----------------------
F|--------------------------------------------------------------------------------------------------------------------------------------------

G|-----------------------------------------------------------------------------------------
D|-----------------------------------------------------------------------------------------
A|--7--7--7--7--8--6--------------------5--3-----------------------------------------------
F|--------------------------------------------2--2--2--2--2--2--2--2--2--2--2--2--2--2--2--

G|--------------------------------------------------------------------------------------------------------------
D|--------------------------------------------------------------------------------------------------------------
A|--5--3-----------------------------------------------5--3-----------------------------------------------5--3--
F|-------2---2--2--2--2--2--2--2--2--2--2--2--2--2--2--------2--2--2--2--2--2--2--2--2--2--2--2--2--2--2--------

G|-----------------------------------------------
D|-----------------------------------------------
A|-----------------------------------------------
F|--2--2--2--2--2--2--2--2--2--2--2--2--2--2--2--

G|--------------------------------------------------------------------------
D|--------------------------------------------------------------------------
A|--5--3-----------------------------------------------5--3-----------------
F|--------2--2--2--2--2--2--2--2--2--2--2--2--2--2--2-----------------------

G|-----------------------------------------------------------------------------------------------------
D|-----------------------------------------------------------------------------------------------------
A|-----9--9--9--9--10-8-----------------------9--9--9--9--10-8-----------------------7--7--7--7--8--6--
F|-----------------------------------------------------------------------------------------------------

G|--------------------------------
D|--------------------------------
A|--------------7--7--7--7--8--6--
F|--------------------------------

G|--------------------------------------------------------------------------------------------------------
D|--------------------------------------------------------------------------------------------------------
A|--5--3-----------------------------------------------5--3-----------------------------------------------
F|--------2--2--2--2--2--2--2--2--2--2--2--2--2--2--2--------2--2--2--2--2--2--2--2--2--2--2--2--2--2--2--

G|-----------------------------------------------------------------------------------------------------------------------------------------------
D|-----------------------------------------------------------------------------------------------------------------------------------------------
A|--5--3-----------------------------------------------5--3--------------------------------------------------------------------------------------
F|--------2--2--2--2--2--2--2--2--2--2--2--2--2--2--2--------2--2--2--2--2--2--2--2--2--2--2--2--2--2--2-----------------------------------------

G|--------------------------------------------------------------------------------------------------
D|--------------------------------------------------------------------------------------------------
A|--------------------------------------------------------------------------------------------------
F|--4--4--4--4--4--4--4--4--7--7--7--7--7--7--7--7--4--4--4--4--4--4--4--4--7--7--7--7--7--7--7--7--

G|--------------------------------------------------------------------------
D|--------------------------------------------------------------------------
A|--------------------------------------------------------------------------
F|--0--0--0--0--0--0--0--0--4--4--4--4--4--4--4--4--7--7--7--7--7--7--7--7--

G|----
D|-----
A|-----
F|-----

Use manual mode to free up cursor. Paste any tab in acousterr tab maker and we'll play it !!!
tabs and chords, guitar tabs, music transcription, music technology, deep learning, music information retrieval, transcribe into tabs & chords, chordify, music renditions, songsterr, reverbnation, tabulature, bollywood chords, ultimate guitar, yousician, guitar lessons, acoustic guitar, electric guitar, guitar tuner, 911 tabs