Coma Of Souls - Kreator - Guitar Tabs

Mille Petrozza (Rhythm Guitar)
    
                                                                                                                                                                                                                                                                                                                                                                                                                                                                                                                                                                                                 
E|----------------------------|
B|----------------------------|
G|----------------------------|
D|--------------------4--3----|
A|--8--------7--5-----2--1--3-|
E|--6--0--0--5--3--0--------1-|

    
                                                                                                                                                                                                                                                                                                                                                                                                                                                                                                                                                                                                                                                                                                                                                                                                                                                                                                                                                                                                                                                                                                                                                                                              
E|-------------------------|--------------------------|
B|-------------------------|--------------------------|
G|-------------------------|--------------------------|
D|-----5--4-----------6--7-|------------------4--3----|
A|-----3--2--4-----5--4--5-|8--------7--5-----2--1--3-|
E|--0--------2--0--3-------|6--0--0--5--3--0--------1-|

    
                                                                                                                                                                                                                                                                                                                                                                                                                                                                                                                                                                                                                                                                                                                                                                                                                                                                                                                                                                                                                                                                                                                                                                                              
E|-------------------------|--------------------------|
B|-------------------------|--------------------------|
G|-------------------------|--------------------------|
D|-----------5--7--6-------|------------------4--3----|
A|-----4--5--3--5--4--6----|8--------7--5-----2--1--3-|
E|--0--2--3-----------4----|6--0--0--5--3--0--------1-|

    
                                                                                                                                                                                                                                                                                                                                                                                                                                                                                                                                                                                                                                                                                                                                                                                                                                                                                                                                                                                                                                                                                                                                                                                              
E|-------------------------|--------------------------|
B|-------------------------|--------------------------|
G|-------------------------|--------------------------|
D|-----5--4-----------6--7-|------------------4--3----|
A|-----3--2--4-----5--4--5-|8--------7--5-----2--1--3-|
E|--0--------2--0--3-------|6--0--0--5--3--0--------1-|

    
                                                                                                                                                                                                                                                                                                                                                                                                                                                                                                                                                                                                                                                                                                                                                                                                                                                                                                                                                                                                                                                                                                                                                                                              
E|-------------------------|--------------------------------------|
B|-------------------------|--------------------------------------|
G|-------------------------|--------------------------------------|
D|-----------5--7--6-------|--------------------------------------|
A|-----4--5--3--5--4--6----|8--------7--5-------------------------|
E|--0--2--3-----------4----|6--0--0--5--3--0--0--0--0--0--0--0--0-|

    
                                                                                                                                                                                                                                                                                                                                                                                                                                                                                                                                                                                                                                                                                                                                                                                                                                                                                                                                                                                                                                                                                                                                                                                              
E|----------------------------|--------------------------------------|
B|----------------------------|--------------------------------------|
G|----------------------------|--------------------------------------|
D|-----------------7--6-------|--------------------------------------|
A|--8--------7--5--5--4--6----|8--------7--5-------------------------|
E|--6--0--0--5--3--------4----|6--0--0--5--3--0--0--0--0--0--0--0--0-|

    
                                                                                                                                                                                                                                                                                                                                                                                                                                                                                                                                                                                                                                                                                                                                                                                                                                                                                                                                                                                                                                                                                                                                                                                              
E|----------------------------|--------------------------------------|
B|----------------------------|--------------------------------------|
G|----------------------------|--------------------------------------|
D|-----------------7--6-------|--------------------------------------|
A|--8--------7--5--5--4--6----|8--------7--5-------------------------|
E|--6--0--0--5--3--------4----|6--0--0--5--3--0--0--0--0--0--0--0--0-|

    
                                                                                                                                                                                                                                                                                                                                                                                                                                                                                                                                                                                                                                                                                                                                                                                                                                                                                                                                                                                                                                                                                                                                                                                              
E|----------------------------|--------------------------------------|
B|----------------------------|--------------------------------------|
G|----------------------------|--------------------------------------|
D|-----------------7--6-------|--------------------------------------|
A|--8--------7--5--5--4--6----|8--------7--5-------------------------|
E|--6--0--0--5--3--------4----|6--0--0--5--3--0--0--0--0--0--0--0--0-|

    
                                                                                                                                                                                                                                                                                                                                                                                                                                                                                                                                                                                                                                                                                                                                                                                                                                                                                                                                                                                                                                                                                                                                                                                              
E|----------------------------|--------------------------------------|
B|----------------------------|--------------------------------------|
G|----------------------------|--------------------------------------|
D|-----------------7--6-------|--------------------------------------|
A|--8--------7--5--5--4--6----|8--------7--5-------------------------|
E|--6--0--0--5--3--------4----|6--0--0--5--3--0--0--0--0--0--0--0--0-|

    
                                                                                                                                                                                                                                                                                                                                                                                                                                                                                                                                                                                                                                                                                                                                                                                                                                                                                                                                                                                                                                                                                                                                                                                              
E|----------------------------|--------------------------------------|
B|----------------------------|--------------------------------------|
G|----------------------------|--------------------------------------|
D|-----------------7--6-------|--------------------------------------|
A|--8--------7--5--5--4--6----|8--------7--5-------------------------|
E|--6--0--0--5--3--------4----|6--0--0--5--3--0--0--0--0--0--0--0--0-|

    
                                                                                                                                                                                                                                                                                                                                                                                                                                                                                                                                                                                                                                                                                                                                                                                                                                                                                                                                                                                                                                                                                                                                                                                              
E|----------------------------|-----------------------|
B|----------------------------|-----------------------|
G|----------------------------|-----------------------|
D|-----------------7--6-------|9--------7--7----------|
A|--8--------7--5--5--4--6----|7--------5--5--------10|
E|--6--0--0--5--3--------4----|------0-----------0--8-|

    
                                                                                                                                                                                                                                                                                                                                                                                                                                                                                                                                                                                                                                                                                                                                                                                                                                                                                                                                                                                                                                                                                                                                                                                              
E|-------------------------|-----------------------|
B|-------------------------|-----------------------|
G|-------------------------|-----------------------|
D|--------------------8----|9--------7--7----------|
A|--10-------9--10----6----|7--------5--5--------10|
E|--8-----0--7--8----------|------0-----------0--8-|

    
                                                                                                                                                                                                                                                                                                                                                                                                                                                                                                                                                                                                                                                                                                                                                                                                                                                                                                                                                                                                                                                                                                                                                                                              
E|-------------------------|-----------------------|
B|-------------------------|-----------------------|
G|-------------------------|-----------------------|
D|--------------------10---|9--------7--7----------|
A|--10-------9--10----8----|7--------5--5--------10|
E|--8-----0--7--8----------|------0-----------0--8-|

    
                                                                                                                                                                                                                                                                                                                                                                                                                                                                                                                                                                                                                                                                                                                                                                                                                                                                                                                                                                                                                                                                                                                                                                                              
E|-------------------------|-----------------------|
B|-------------------------|-----------------------|
G|-------------------------|-----------------------|
D|--------------------8----|9--------7--7----------|
A|--10-------9--10----6----|7--------5--5--------10|
E|--8-----0--7--8----------|------0-----------0--8-|

    
                                                                                                                                                                                                                                                                                                                                                                                                                                                                                                                                                                                                                                                                                                                                                                                                                                                                                                                                                                                                                                                                                                                                                                                              
E|-------------------------|-----------------------|
B|-------------------------|-----------------------|
G|-------------------------|-----------------------|
D|-----------4--5----------|9--------7--7----------|
A|--10-------2--3-----3----|7--------5--5--------10|
E|--8-----0-----------1----|------0-----------0--8-|

    
                                                                                                                                                                                                                                                                                                                                                                                                                                                                                                                                                                                                                                                                                                                                                                                                                                                                                                                                                                                                                                                                                                                                                                                              
E|-------------------------|-----------------------|
B|-------------------------|-----------------------|
G|-------------------------|-----------------------|
D|--------------------8----|9--------7--7----------|
A|--10-------9--10----6----|7--------5--5--------10|
E|--8-----0--7--8----------|------0-----------0--8-|

    
                                                                                                                                                                                                                                                                                                                                                                                                                                                                                                                                                                                                                                                                                                                                                                                                                                                                                                                                                                                                                                                                                                                                                                                              
E|-------------------------|-----------------------|
B|-------------------------|-----------------------|
G|-------------------------|-----------------------|
D|--------------------10---|9--------7--7----------|
A|--10-------9--10----8----|7--------5--5--------10|
E|--8-----0--7--8----------|------0-----------0--8-|

    
                                                                                                                                                                                                                                                                                                                                                                                                                                                                                                                                                                                                                                                                                                                                                                                                                                                                                                                                                                                                                                                                                                                                                                                              
E|-------------------------|-----------------------|
B|-------------------------|-----------------------|
G|-------------------------|-----------------------|
D|--------------------8----|9--------7--7----------|
A|--10-------9--10----6----|7--------5--5--------10|
E|--8-----0--7--8----------|------0-----------0--8-|

    
                                                                                                                                                                                                                                                                                                                                                                                                                                                                                                                                                                                                 
E|-------------------------|
B|-------------------------|
G|-------------------------|
D|-----------4--5----------|
A|--10-------2--3-----3----|
E|--8-----0-----------1----|

    
                                                                                                                                                                                                                                                                                                                                                                                                                                                                                                                                                                                                 
E|-------------------------------------------|
B|-------------------------------------------|
G|-------------------------------------------|
D|--------------------5--5-------------------|
A|--------------------3--3-------------------|
E|--0--0--0--0--0--0--------0--0--0--0--0--0-|

    
                                                                                                                                                                                                                                                                                                                                                                                                                                                                                                                                                                                                                                                                                                                                                                                                                                                                                                                                                                                                                                                                                                                                                                                              
E|-------------------------------|-----------------------------|
B|-------------------------------|-----------------------------|
G|-------------------------------|-----------------------------|
D|--5--------------4--5----------|5--------------4--5----------|
A|--3--------------2--3-----3----|3--------------2--3-----3----|
E|-----0--0--0--0-----------1----|---0--0--0--0-----------1----|

    
                                                                                                                                                                                                                                                                                                                                                                                                                                                                                                                                                                                                                                                                                                                                                                                                                                                                                                                                                                                                                                                                                                                                                                                              
E|----------------------------------------|--------------------------------------|
B|----------------------------------------|--------------------------------------|
G|----------------------------------------|--------------------------------------|
D|----------------------------------------|--------------------------------------|
A|---------------------3p5---------------2p3-------------------------------------|
E|--0--0--0--0--0--0--------0--0--0--0----|---0--0--0--0--0--0--0--0--0--0---2p3-|

    
                                                                                                                                                                                                                                                                                                                                                                                                                                                                                                                                                                                                                                                                                                                                                                                                                                                                                                                                                                                                                                                                                                                                                                                              
E|----------------------------------------|--------------------------------------|
B|----------------------------------------|--------------------------------------|
G|----------------------------------------|--------------------------------------|
D|----------------------------------------|--------------------------------------|
A|---------------------3p5---------------2p3--3--3--3--3--3--3--3--3--3--3-------|
E|--0--0--0--0--0--0--------0--0--0--0----|----------------------------------3p2-|

    
                                                                                                                                                                                                                                                                                                                                                                                                                                                                                                                                                                                                                                                                                                                                                                                                                                                                                                                                                                                                                                                                                                                                                                                              
E|----------------------------------------|--------------------------------------|
B|----------------------------------------|--------------------------------------|
G|----------------------------------------|--------------------------------------|
D|----------------------------------------|--------------------------------------|
A|---------------------3p5---------------2p3-------------------------------------|
E|--0--0--0--0--0--0--------0--0--0--0----|---0--0--0--0--0--0--0--0--0--0---2p3-|

    
                                                                                                                                                                                                                                                                                                                                                                                                                                                                                                                                                                                                                                                                                                                                                                                                                                                                                                                                                                                                                                                                                                                                                                                              
E|----------------------------------------|--------------------------------------|
B|----------------------------------------|--------------------------------------|
G|----------------------------------------|--------------------------------------|
D|----------------------------------------|--------------------------------------|
A|---------------------3p5---------------2p3--3--3--3--3--3--3--3--3--3--3-------|
E|--0--0--0--0--0--0--------0--0--0--0----|----------------------------------3p2-|

    
                                                                                                                                                                                                                                                                                                                                                                                                                                                                                                                                                                                                                                                                                                                                                                                                                                                                                                                                                                                                                                                                                                                                                                                              
E|----------------------------------------|--------------------------------------|
B|----------------------------------------|--------------------------------------|
G|----------------------------------------|--------------------------------------|
D|----------------------------------------|--------------------------------------|
A|---------------------3p5---------------2p3-------------------------------------|
E|--0--0--0--0--0--0--------0--0--0--0----|---0--0--0--0--0--0--0--0--0--0---2p3-|

    
                                                                                                                                                                                                                                                                                                                                                                                                                                                                                                                                                                                                                                                                                                                                                                                                                                                                                                                                                                                                                                                                                                                                                                                              
E|----------------------------------------|--------------------------------------|
B|----------------------------------------|--------------------------------------|
G|----------------------------------------|--------------------------------------|
D|----------------------------------------|--------------------------------------|
A|---------------------3p5---------------2p3--3--3--3--3--3--3--3--3--3--3-------|
E|--0--0--0--0--0--0--------0--0--0--0----|----------------------------------3p2-|

    
                                                                                                                                                                                                                                                                                                                                                                                                                                                                                                                                                                                                                                                                                                                                                                                                                                                                                                                                                                                                                                                                                                                                                                                              
E|----------------------------------------|--------------------------------------|
B|----------------------------------------|--------------------------------------|
G|----------------------------------------|--------------------------------------|
D|----------------------------------------|--------------------------------------|
A|---------------------3p5---------------2p3-------------------------------------|
E|--0--0--0--0--0--0--------0--0--0--0----|---0--0--0--0--0--0--0--0--0--0---2p3-|

    
                                                                                                                                                                                                                                                                                                                                                                                                                                                                                                                                                                                                                                                                                                                                                                                                                                                                                                                                                                                                                                                                                                                                                                                              
E|----------------------------------------|--------------------------------------|
B|----------------------------------------|--------------------------------------|
G|----------------------------------------|--------------------------------------|
D|----------------------------------------|--------------------------------------|
A|---------------------3p5---------------2p3--3--3--3--3--3--3--3--3--3--3-------|
E|--0--0--0--0--0--0--------0--0--0--0----|----------------------------------3p2-|

    
                                                                                                                                                                                                                                                                                                                                                                                                                                                                                                                                                                                                                                                                                                                                                                                                                                                                                                                                                                                                                                                                                                                                                                                              
E|-------------------------|-----------------------|
B|-------------------------|-----------------------|
G|-------------------------|-----------------------|
D|-------------------------|3-----------3----------|
A|--6--------------6-------|1--1--1--1--1--1--1--1-|
E|--4--4--4--4--4-----4--4-|-----------------------|

About Coma of Souls : Coma of Souls is the fifth studio album by German thrash metal band Kreator . It was reissued in 2002 with the lyrics for the last four songs missing from the booklet . It would be the last record issued in the U.S. by Epic Records . Coma of Souls was also released in the U.S. as a limited edition in purple vinyl . Although the album's lyrics contain no profanity, original copies of the album had a Parental Advisory label on the cover . In March 2018, German heavy metal record label Noise released a remastered edition of Kreator . The release contains a live performance at Stadthalle F├╝rth, Germany on 6th December It had a contribution from notable artists like Frank "Blackfire" Gosdzik. It had an affiliation to bands - Coma of Souls,Kreator. Its music is influenced by genres - thrash metal.

tabs and chords, guitar tabs, music transcription, music technology, deep learning, music information retrieval, transcribe into tabs & chords, chordify, music renditions, songsterr, reverbnation, tabulature, bollywood chords, ultimate guitar, yousician, guitar lessons, acoustic guitar, electric guitar, guitar tuner, 911 tabs