Guitar Tabs for Cold Duck Time Guitar Solo

(/) Slide Up  (\) Slide Down  (h) Hammer On  (p) Pull Off  (b) Bend (r) Release (v) Vibrato (x) Muted
funk rock quarter note= 132 -144
Overdrive solo (use a pedal for this if you have)

E|-----3--12b---10-6--5--3--------3--
B|--5-----------------------5--------
G|-----------------------------------
D|-----------------------------------
A|-----------------------------------
E|-----------------------------------

E|--------------------------------
B|--3--4--5--3--5-----------------
G|-----------------3--2--0-----0--
D|--------------------------2-----
A|--------------------------------
E|--------------------------------

E|-----------------------0-----------
B|-----------0--1--2--3-----3--4--5--
G|--0--2--3--------------------------
D|-----------------------------------
A|-----------------------------------
E|-----------------------------------

E|--6--5--6--5--3-----3-----1--8--6--5-----3--10-8---5h6--
B|-----------------5-----2--------------4-----------------
G|--------------------------------------------------------
D|--------------------------------------------------------
A|--------------------------------------------------------
E|--------------------------------------------------------

E|--7--10-6--5--3--1--------------3--
B|--------------------3--1-----------
G|---------------------------4/5-----
D|-----------------------------------
A|-----------------------------------
E|-----------------------------------

E|--6--5--3--1--------8--6--5--3--1-----10-8--6--7--10-
B|--------------2--1-----------------3-----------------
G|-----------------------------------------------------
D|-----------------------------------------------------
A|-----------------------------------------------------
E|-----------------------------------------------------

E|--12b10-8---6/3--
B|-----------------
G|-----------------
D|-----------------
A|-----------------
E|-----------------
tabs and chords, guitar tabs, music contests, music covers, songsterr, reverbnation, renditions, tabulature, bollywood chords, ultimate guitar, yousician, guitar lessons, torrins, fender, gibson, acoustic guitar, electric guitar, youtube covers, gootar, guitar tuner, A-Z tabs, 911 tabs