Bass Tabs for Cocaine

(/) Slide Up  (\) Slide Down  (h) Hammer On  (p) Pull Off  (b) Bend (r) Release (v) Vibrato (x) Muted

Tabs for Song : 
BPM : 105

 
G|-----------------------------------------
D|-----------------------------------------
A|--7--5-----5-----7-----7--5--------------
E|--------7-----------7--------5--5--3--0--

G|--------------------------------------------
D|--------------------------------------------
A|--7-----7--5-----5--------7-----7--5-----5--
E|-----7--------5--------------7--------7-----

G|--------------------------------------------
D|--------------------------------------------
A|--7-----7--5-----5--------7-----7--5-----5--
E|-----7--------5--------------7--------5-----

G|--------------------
D|--------------------
A|--------------------
E|--7--5--------3--2--






G|--
D|--
A|--
E|--

G|--
D|--
A|--
E|--
tabs and chords, guitar tabs, music transcription, music technology, deep learning, music information retrieval, transcribe into tabs & chords, chordify, music renditions, songsterr, reverbnation, tabulature, bollywood chords, ultimate guitar, yousician, guitar lessons, acoustic guitar, electric guitar, guitar tuner, 911 tabs