Guitar Tabs for Closer

(/) Slide Up  (\) Slide Down  (h) Hammer On  (p) Pull Off  (b) Bend (r) Release (v) Vibrato (x) Muted

Tabs for Song : Closer

Intro
D|--------------------------------------------------------------------------------------------------|
A|--------------------------------------------------------------------------------------------------|
F|--------------------------------------------------------------------------------------------------|
C|--------------0--------0----------------3--------3------------2--------2--------2------2h3--2-----|
G|--------0-----------0-------------0-----------0---------0-----------0--------0-----0-----------3--|
C|--0-------------------------3---------------------5-----------------------------------------------|

D|--------------------------------------------------------------------------------------------------|
A|--------------------------------------------------------------------------------------------------|
F|--------------------------------------------------------------------------------------------------|
C|--0-----------0-----------3-----------3-----------2-----------2-----------2-----------2-----------|
G|--0-----------0-----------0-----------0-----------0-----------0-----------0-----------0-----------|
C|--0-----------0-----------3-----------3-----------5-----------5-----------5-----------5-----------|


Chorus 
D|--------------------------------------------------------------------------------------------------|
A|--------------------------------------------------------------------------------------------------|
F|--7-----------7-----------6-----------6-----------5-----------5-----------4-----------4-----------|
C|--7-----------7-----------7-----------7-----------5-----------5-----------4-----------4-----------|
G|--5-----------5-----------4-----------4-----------3-----------3-----------2-----------2-----------|
C|--------------------------------------------------------------------------------------------------|


Verse
D|--------------------------------------------------------------------------------------------------|
A|--------------------------------------------------------------------------------------------------|
F|--------------------------------------------------------------------------------------------------|
C|--0-----------0-----------3-----------3-----------5-----------5-----------5------------5h7---5\3--|
G|--0-----------0-----------3-----------3-----------5-----------5-----------5------------5h7---5\3--|
C|--0-----------0-----------3-----------3-----------5-----------5-----------5------------5h7---5\3--|

Paste any tab in acousterr's tab maker and we'll play it !!!
Now supports capo and sound effects for vibrato/pull-off/hammer/bends/mutes etc !!! Checkout help section
tabs and chords, guitar tabs, music transcription, music technology, deep learning, music information retrieval, transcribe into tabs & chords, chordify, music renditions, songsterr, reverbnation, tabulature, bollywood chords, ultimate guitar, yousician, guitar lessons, acoustic guitar, electric guitar, guitar tuner, 911 tabs