Guitar Tabs for Clenched Teeth

(/) Slide Up  (\) Slide Down  (h) Hammer On  (p) Pull Off  (b) Bend (r) Release (v) Vibrato (x) Muted

Tabs for Song : 

Intro
E|--------------------------------------------------------------------------------------
B|-----3-----3-----3--------5-----5-----------7-----7-----7--------3-----3-----3-----3--
G|--------0--------------------0-----------------0--------------------0-----------------
D|--------------2--------------------4-----------------5--------------------2-----------
A|--3-----------------3--5--------------5--7-----------------7--3-----------------3-----
E|--------------------------------------------------------------------------------------

E|-----------------------------------------------------------------------------------------
B|-----3-----3-----3--------5-----5-----5--------7-----7-----7--------3-----3-----3-----3--
G|--------0--------------------0--------------------0--------------------0-----------------
D|--------------2--------------------4--------------------5--------------------2-----------
A|--3-----------------3--5-----------------5--7-----------------7--3-----------------3-----
E|-----------------------------------------------------------------------------------------

Rest of song
E|--------------------------------------------------------------------------------------------------
B|-----------3-----------------------5-----------------------7-----------------------3--------------
G|--------0-----0-----------------0-----0-----------------0-----0-----------------0-----0-----------
D|-----2-----------2-----2-----4-----------4-----4-----5-----------5-----5-----2-----------2-----2--
A|--3-----------------3-----5-----------------5-----7-----------------7-----3-----------------3-----
E|--------------------------------------------------------------------------------------------------

E|----------------------------------------------------
B|-----------------------------------3-----3--3-----5-
G|-----0-----0--0-----0-----0--0-----0-----0--0-----0-
D|-----0-----0--0-----0-----0--0-----2-----2--2-----4-
A|-----2-----2--2-----0-----0--0-----3-----3--3-----5-
E|-----3-----3--3-----2-----2--2----------------------

E|--------------------------------------------------------------------------------------------------
B|-----------3-----------------------5-----------------------7-----------------------3--------------
G|--------0-----0-----------------0-----0-----------------0-----0-----------------0-----0-----------
D|-----2-----------2-----2-----4-----------4-----4-----5-----------5-----5-----2-----------2-----2--
A|--3-----------------3-----5-----------------5-----7-----------------7-----3-----------------3-----
E|--------------------------------------------------------------------------------------------------

E|----------------------------------------------------
B|-----------------------------------3-----3--3-----5-
G|-----0-----0--0-----0-----0--0-----0-----0--0-----0-
D|-----0-----0--0-----0-----0--0-----2-----2--2-----4-
A|-----2-----2--2-----0-----0--0-----3-----3--3-----5-
E|-----3-----3--3-----2-----2--2----------------------


E|-----------------------------------------------------------------------------------------
B|-----3-----3-----3--------5-----5-----5--------7-----7-----7--------3-----3-----3-----3--
G|--------0--------------------0--------------------0--------------------0-----------------
D|--------------2--------------------4--------------------5--------------------2-----------x3
A|--3-----------------3--5-----------------5--7-----------------7--3-----------------3-----
E|-----------------------------------------------------------------------------------------

E|----------------------------------------------------
B|-----------------------------------3-----3--3-----5-
G|-----0-----0--0-----0-----0--0-----0-----0--0-----0-
D|-----0-----0--0-----0-----0--0-----2-----2--2-----4-
A|-----2-----2--2-----0-----0--0-----3-----3--3-----5-
E|-----3-----3--3-----2-----2--2----------------------

E|--------------------------------------------------------------------------------------------------
B|-----------3-----------------------5-----------------------7-----------------------3--------------
G|--------0-----0-----------------0-----0-----------------0-----0-----------------0-----0-----------
D|-----2-----------2-----2-----4-----------4-----4-----5-----------5-----5-----2-----------2-----2--x2
A|--3-----------------3-----5-----------------5-----7-----------------7-----3-----------------3-----
E|--------------------------------------------------------------------------------------------------

E|----------------------------------------------------
B|-----------------------------------3-----3--3-----5-
G|-----0-----0--0-----0-----0--0-----0-----0--0-----0-
D|-----0-----0--0-----0-----0--0-----2-----2--2-----4-
A|-----2-----2--2-----0-----0--0-----3-----3--3-----5-
E|-----3-----3--3-----2-----2--2----------------------

E|----------------------------------------------------------------------------------------
B|-----3-----3-----3--------5-----5-----5--------7-----7-----7--------3-----3-----3-----3-
G|--------0--------------------0--------------------0--------------------0----------------
D|--------------2--------------------4--------------------5--------------------2----------2x
A|--3-----------------3--5-----------------5--7-----------------7--3-----------------3----
E|----------------------------------------------------------------------------------------

E|----------------------------------------------------
B|-----------------------------------3-----3--3-----5-
G|-----0-----0--0-----0-----0--0-----0-----0--0-----0-
D|-----0-----0--0-----0-----0--0-----2-----2--2-----4-
A|-----2-----2--2-----0-----0--0-----3-----3--3-----5-
E|-----3-----3--3-----2-----2--2----------------------










------------------------------------------------------------------------------------




Paste any tab in acousterr's tab maker and we'll play it !!!
Now supports capo and sound effects for vibrato/pull-off/hammer/bends/mutes etc !!! Checkout help section
tabs and chords, guitar tabs, music transcription, music technology, deep learning, music information retrieval, transcribe into tabs & chords, chordify, music renditions, songsterr, reverbnation, tabulature, bollywood chords, ultimate guitar, yousician, guitar lessons, acoustic guitar, electric guitar, guitar tuner, 911 tabs