Guitar Tabs for Clear Sky

Tabs for Song : 

Part 1: Play x2
E|--------------------------------------------------------------------------------------------------
B|-----0--------------0--------0--------------1-----0--1--0-----------3-----1--3--1--0--------3-----
G|--2-----2-----------------2-----2--------------------------2--------------------------------------
D|-----------2-----------------------2--------------0-----------0-----------0-----------0-----------
A|--0-----------0-----------0-----------0-----------------0-----------0-----------0-----------0-----
E|--------0-----------0-----------0-----------0-----------------------------------------------------

E|--------------------------------------------------------------------------------------------------
B|--1--3--1--0--------3-----1--3--1--0-----------------0--------------3-----1--3--1--0--------------
G|--------------------------------------2-----1-----2-----2-----------------------------2-----1-----
D|-----------------------------------------------------------2--------------------------------------
A|--2-----------2-----------2-----------2-----------0-----------0-----------2-----------2-----------
E|--------0-----------0-----------0-----------0-----------0-----------0-----------0-----------0-----

Bridge to Part 2:
E|--------------------------------------------
B|--------------------1-----0-----------------
G|--2-----------------------1-----------------
D|--2-----------------------2-----------------
A|--0-----------0-----------2-----------2-----
E|--------0-----------0-----------0-----------

Part 2: Play 2x
E|--------------------------------------------------------------------------------------------------
B|--1--0--------1--0--------1--0--------------------1--0--------------------------------------------
G|--------2-----------2-----------2-----------------------2-----------0--0--0-----------------------
D|-----------2-----------2-----------2-----------------------2--2--2-----------4--3-----------0-----
A|--------0-----------0-----------0-----------0-----------0-----------0-----------------0-----------
E|--------------0-----------0-----------0-----------0-----------0-----------0-----------------------

E|--------------------------------------------------------------------0-----------------------------
B|--3--1--0-----3--1--0-----3--1--0-----------------3--1--0--0--1--3-----3--1--0--------------------
G|--------------------------------------------------------------------------------2-----------------
D|--------0--3--------0--3--------0--3--------0-----------------------------------------------------
A|--0-----------0-----------0-----------0-----------0-----2-----------2-----------0-----------0-----
E|--------------------------------------------------------------0-----------0-----------0-----------

Part 3:
E|-----------------------------------------------------------------------------0--------------------
B|--1--0--------1--0--------1--0--------------------1--0--------0--1--2--2--3-----3-----------------
G|--------2-----------2-----------2-----------------------2--2--------------------------------------
D|-----------2-----------2-----------2--------------------------------------------0-----------0-----
A|--------0-----------0-----------0-----------0-----------0-----------0-----------------0-----------
E|--0-----------0-----------0-----------0-----------0-----------0-----------0-----------------------

E|--1--0--------------0--0-----0--------------------------------------------------------------------
B|--------3--0--1--3--------3-----1-----------------0--1--3--1--0-----1--0--------------------------
G|-----------------------------------2-----------2-----------------2--------2--1--2-----------------
D|--------0-----------0-----------------------------------------------------------------------------
A|--0-----------0-----------0-----0-----------0-----------2-----------2-----------0-----------0-----
E|--------------------------------------0-----------0-----------0-----------0-----------0-----------

Part 4: Play 2x
E|-----1-----------------------1-----3-----------------1-----3-----------------1--------------------
B|-----3-----------1-----1-----3-----0-----1-----1-----3-----0-----1-----1-----3-----------1-----1--
G|-----2-----1-----2-----2-----2-----0-----0-----0-----2-----0-----2-----2-----2-----1-----2-----2--
D|--0--------2-----2-----2--0--------------2-----2--0--------------2-----2--0--------2-----2-----2--
A|-----------2--0-----0-----------2-----3-----3-----------2-----0-----0--------------2--0-----0-----
E|--------0-----------------------------------------------------------------------0-----------------

Part 5:
E|-----------------------------------------------------1-----1-----1-----1-----1-----1-----1-----1--
B|-----1-----1-----1-----1-----1-----1-----1-----1--3-----------------------------------------3-----
G|--2-----------------------------------------2--------2-----2-----2-----2-----2-----2-----2-----2--
D|-----2-----2-----2-----2-----2-----2-----2-----2--------------0-----------0-----------0-----------
A|--------------0-----------0-----------0-----------------0-----------0-----------0-----------------
E|--------0-----------0-----------0-----------------------------------------------------------------

E|--0-----------------------------------------0-----------------------------0-----------------
B|-----------------------------------------------------1-----1-----1-----1--------------------
G|-----1-----1-----1-----1-----1-----1-----1-----1--2-----------------2--------1-----1--1-----
D|-----2-----2-----2-----2-----2-----2-----2-----2-----2-----2-----2-----2-----2-----2--2-----
A|--------------2-----------2-----------2-----------------------0--------------------2--2-----
E|--------0-----------0-----------0-----------------------0-----------------------0-----------

Part 6:
E|-----------------------------------------------------------------------------0--------------------
B|--1--0--------1--0--------1--0--------------------1--0--------0--1--2--2--3-----3-----------------
G|--------2-----------2-----------2-----------------------2--2--------------------------------------
D|-----------2-----------2-----------2--------------------------------------------0-----------0-----
A|--------0-----------0-----------0-----------0-----------0-----------0-----------------0-----------
E|--------------0-----------0-----------0-----------0-----------0-----------0-----------------------

E|--1--0--------------0--0-----0--------------------------------------------------------------------
B|--------3--0--1--3--------3-----1-----------------0--1--3--1--0-----1--0--------------------------
G|-----------------------------------2-----------2-----------------2--------2--1--2-----------------
D|--------0-----------0-----------------------------------------------------------------------------
A|--0-----------0-----------0-----0-----------0-----------2-----------2-----------0-----------0-----
E|--------------------------------------0-----------0-----------0-----------0-----------0-----------

E|--1-----0--------------0--0-----0--------------------------------------------------------4-----5--
B|-----------3--0--1--3--------3-----1-----------------0--1--3--1--0-----1--0--------------------5--
G|--------------------------------------2-----------2-----------------2--------2--1--2-----------5--
D|-----------0-----------0-----------------------------------------------------------2--------------
A|-----------------0-----------0-----0-----------0-----------2-----------2-----------0--------------
E|-----------------------------------------0-----------0-----------0-----------0--------------------
tabs and chords, guitar tabs, music transcription, music technology, deep learning, music information retrieval, transcribe into tabs & chords, chordify, music renditions, songsterr, reverbnation, tabulature, bollywood chords, ultimate guitar, yousician, guitar lessons, acoustic guitar, electric guitar, guitar tuner, 911 tabs