Guitar Tabs for Clair De Lune

(/) Slide Up  (\) Slide Down  (h) Hammer On  (p) Pull Off  (b) Bend (r) Release (v) Vibrato (x) Muted

Tabs for Song : 

Song lyrics here
E|--------------------------------------------------------------
B|-----9--------------------------------------------------------
G|--------10-------8--10-8--------6--8--6--10-6--------5--6--5--
D|--6-----------7--------------6--------------------4-----------
A|--------------------------------------------------------------
E|--------------------------------------------------------------

E|--------------------------------------------------------------------------------------
B|-----------4--------------------------------------------------------------------------
G|--3--5--3-----3--1--3--1--------------------------------3-----------------------------
D|--------------------------4--6--4--3-----------3--4--3-----3--1--3--1-----------------
A|--------------------------------------4--------------------------------4--6--4--3-----
E|-----------------------------------------------------------------------------------4--

E|-----------------------------0-----0--------------------------------9--10-9--
B|-----------10----7--------------7--------------------7-----------------------
G|--------2-----------------------------------7--6--7-----7--------0-----------
D|-----4--------------------8--------------7-----------------------------------
A|--5--------------------------------------------------------------------------
E|-----------------------------------------------------------------------------

E|-----7--9--7--12-------------------------------------2--3--2--7--2--0--2--0--------------------------
B|-----------------12-10-12-10----8--10-8--7-----------------------------------------------------------
G|--12-------------------------7--------------------------------------------------7--9--7-----6--------
D|--------------------------------------------------12-------------------------7-----------------------
A|--------------------------------------------------------------------------------------------------0--
E|-----------------------------------------------------------------------------------------------------

E|-----------5-----2-----------0-----2-----0-----------------0-----5--------2-----
B|-----------------3-----------0-----------0-----------3-----------3--------3-----
G|--------2--------------------0-----------0-----------2--------------------2-----
D|-----4-----------------------0-----------0--------------------------------------
A|--5-----------------------------------------------------------------------------
E|--------------------------3-----------------------2-----------------------------

E|-----0-----2-----0-----------------------0--7--5-----2-----------0--2--0-----------------------
B|-----0-----------0--------3-----------3--------------------------------------3-----2-----------
G|-----0-----------0-----------------------------------------------------------------------------
D|-----0-----------0-----------------------------------------------------------------------------
A|-----------------------------------0--------------------------2--------------------------0-----
E|--3--------------------------------------------------------------------------------------------

E|-----14----12----12----10----10----10----9-----9-----10----7-----------
B|-----------------------------------------------------------------------
G|-----------------------------------------------------------------------
D|-----------------------------------------------------------------------
A|-----------------------------------------------------------------------
E|--0--------------------------------------------------------------------

E|-----14----15----14----12----14----12----10----12----10----9-----10----7--
B|--------------------------------------------------------------------------
G|--------------------------------------------------------------------------
D|--------------------------------------------------------------------------
A|--------------------------------------------------------------------------
E|--0-----------------------------------------------------------------------

E|--------3--5--9-----7-----------------0--0--0--0--5--0-----------------10-7-----
B|-----------------------8-----------------------------------------8--10-------8--
G|--------------------------------------------------------------------------------
D|--------------------------------------------------------------------------------
A|--0-----------------------------------------------------------------------------
E|-----------------------------------6--------------------------7-----------------

E|-----0--0--0--0--5--0-----------3--5--12-10-7-----------7--7--7--7--9--7--10-
B|-----------------------------------------------------------------------------
G|-----------------------------------------------------------------------------
D|-----------------------------0-----------------------------------------------
A|-----------------------------------------------------------------------------
E|--9--------------------------------------------------12----------------------

E|--------------------------------2-----5-----10-				
B|-----------------3-----------3-----------------
G|--------------2-----------2--------------------
D|--0-----0--4-----------4-----------------------
A|-----0-----------------------------------------
E|-----------------------------------------------

Song lyrics here
E|--
B|--
G|--
D|--
A|--
E|--

Paste any tab in acousterr's tab maker and we'll play it !!!
Now supports capo and sound effects for vibrato/pull-off/hammer/bends/mutes etc !!! Checkout help section
tabs and chords, guitar tabs, music transcription, music technology, deep learning, music information retrieval, transcribe into tabs & chords, chordify, music renditions, songsterr, reverbnation, tabulature, bollywood chords, ultimate guitar, yousician, guitar lessons, acoustic guitar, electric guitar, guitar tuner, 911 tabs