Bass Tabs for Cissy Strut - The Meters

(/) Slide Up  (\) Slide Down  (h) Hammer On  (p) Pull Off  (b) Bend (r) Release (v) Vibrato (x) Muted

Tabs for Song : 

Song lyrics here
G|--5--3-----------------------------------------------
D|--------5-----------------------------------5--------
A|-----------6--3-----------3-----3--------5-----------
E|--------------------5--5-----5--------5--------3--3--
B|-----------------------------------------------------

G|--5--0--5--3--5--3-----5--0--5--3--------
D|-----------------------------------5-----
A|--------------------------------------3--
E|-----------------------------------------
B|-----------------------------------------

G|--------------------
D|--------------------
A|--3--------1--2--3--
E|-----3--3-----------
B|--------------------


Paste any tab in acousterr's tab maker and we'll play it !!!
Now supports capo and sound effects for vibrato/pull-off/hammer/bends/mutes etc !!! Checkout help section
tabs and chords, guitar tabs, music transcription, music technology, deep learning, music information retrieval, transcribe into tabs & chords, chordify, music renditions, songsterr, reverbnation, tabulature, bollywood chords, ultimate guitar, yousician, guitar lessons, acoustic guitar, electric guitar, guitar tuner, 911 tabs