Guitar Tabs for Cigarettes And Heartbreak

E|--2--2--2--2--2--2--2--2--2--2--2--2--2--2--2--2--0--0--0--0--0--0--0--0--3--3--3--3--3--------3-----3-----4x
B|--3--3--3--3--3--3--3--3--2--2--2--2--2--2--2--2--0--0--0--0--0--0--0--0--3--3--3--3--3-----3-----3-----3--
G|--2--2--2--2--2--2--2--2--2--2--2--2--2--2--2--2--1--1--1--1--1--1--1--1--3--3--3--3--3--3-----------------
D|--0--0--0--0--0--0--0--0-----------------------------------------------------------------------------------
A|-----------------------------------------------------------------------------------------------------------
E|-----------------------------------------------------------------------------------------------------------

E|--------2--------2--------2--------2--------3--------3--------3--------3--------4--------4--------4--------4--------3--------3--------3--------3-----
B|-----------------------------------------------------------------------------------------------------------------------------------------------------
G|-----2--------2--------2--------2--------3--------3--------3--------3--------4--------4--------4--------4--------3--------3--------3--------3-----2--
D|--0--------0--------0--------0--------0--------0--------0--------0--------0--------0--------0--------0--------0--------0--------0--------0-----------
A|-----------------------------------------------------------------------------------------------------------------------------------------------------
E|-----------------------------------------------------------------------------------------------------------------------------------------------------
Repeat Main Verse

E|--2--2--2--2--2--2--2--2--2--2--2--2--2--2--2--2--0--0--0--0--0--0--0--0--3--3--3--3--3--------3-----3-----2--
B|--3--3--3--3--3--3--3--3--2--2--2--2--2--2--2--2--0--0--0--0--0--0--0--0--3--3--3--3--3-----3-----3--------2--
G|--2--2--2--2--2--2--2--2--2--2--2--2--2--2--2--2--1--1--1--1--1--1--1--1--3--3--3--3--3--3--------------2--2--
D|--0--0--0--0--0--0--0--0--------------------------------------------------------------------------------------
A|--------------------------------------------------------------------------------------------------------------
E|--------------------------------------------------------------------------------------------------------------
tabs and chords, guitar tabs, music transcription, music technology, deep learning, music information retrieval, transcribe into tabs & chords, chordify, music renditions, songsterr, reverbnation, tabulature, bollywood chords, ultimate guitar, yousician, guitar lessons, acoustic guitar, electric guitar, guitar tuner, 911 tabs