Bass Tabs for Chuck Berry - Johnny B. Goode

Chuck Berry - Johnny B. Goode

G|--------------------------------------------------
D|-----------4-----------4-----------4-----------4--
A|-----4--7--------4--7--------4--7--------4--7-----
E|--5-----------5-----------5-----------5-----------

G|-----------4--4--5--4--------------------------------------------6-----------4--
D|-----4--7--------------7--4-----------4--4--5--4-----------6--9--------4--7-----
A|--5-----------------------------4--7--------------7--4--7-----------5-----------
E|-----------------------------5--------------------------------------------------

G|-----------------------------------
D|--------------------5--------------
A|-----4--5--6--7--7-----7--6--5--4--
E|--5--------------------------------


tabs and chords, guitar tabs, music transcription, music technology, deep learning, music information retrieval, transcribe into tabs & chords, chordify, music renditions, songsterr, reverbnation, tabulature, bollywood chords, ultimate guitar, yousician, guitar lessons, acoustic guitar, electric guitar, guitar tuner, 911 tabs