Bass Tabs for Chubby Checker - Let's Twist Again

Chubby Checker - Let's Twist Again

Intro
G|-----------------------
D|-----------------------
A|-----------------------
E|--3--3--3--3--3--3--3--

Verse
G|-----------------------------------------------------------------
D|-----2--5-----2--5-----------------------------------------------
A|--3--------3-----------3--7-----3--7-----0--3-----0--3-----2--5--
E|--------------------5--------5--------1--------1--------3--------

G|-----------------------------------------------------------------------
D|-----2--5-----2--5-----------------------------------------2--5-----2--
A|--3--------3-----------3--7-----3--7-----0--3-----2--5--3--------3-----
E|--------------------5--------5--------1--------3-----------------------

Tension
G|--------------------------------------------------------------------------
D|-----------------------2--5-----2--5--------------------------------------
A|-----0--3-----0--3--3--------3-----------0--3-----0--3-----2--5-----2--5--
E|--1--------1--------------------------1--------1--------3--------3--------

tabs and chords, guitar tabs, music transcription, music technology, deep learning, music information retrieval, transcribe into tabs & chords, chordify, music renditions, songsterr, reverbnation, tabulature, bollywood chords, ultimate guitar, yousician, guitar lessons, acoustic guitar, electric guitar, guitar tuner, 911 tabs