Guitar Tabs for Sailing - Rod Stewart Pt.1

SAILING - ROD STEWART:

E|-----------------------------------------------------------------------------
B|--------------------------7--9--9--9--------9--7--7--------------------------
G|-----3--4--4--4--------8-----------------------------9--9--------9--8--8-----
D|--4--------------------------------------------------------------------------
A|-----------------------------------------------------------------------------
E|-----------------------------------------------------------------------------


E|-----------------------------------------------------------------------------
B|-----------------------------------------------------------------------------
G|--9--8--8--6--------8--6--6--4--4-----------4--8--6--6-----------------------
D|-----------------------------------------6-----------------------------------
A|-----------------------------------------------------------------------------
E|-----------------------------------------------------------------------------


E|-----------------
B|-----------------
G|--6--4--4--------
D|-----------------
A|-----------------
E|-----------------

tabs and chords, guitar tabs, music transcription, music technology, deep learning, music information retrieval, transcribe into tabs & chords, chordify, music renditions, songsterr, reverbnation, tabulature, bollywood chords, ultimate guitar, yousician, guitar lessons, acoustic guitar, electric guitar, guitar tuner, 911 tabs