Ukulele Tabs for Choo Lo Intro Ukuele

A|-----------------------------------------------------
E|--------0--------0-----0--------0--------0-----0-----
C|---3h4--------4------------3h4--------4--------------
G|-----------4--------4--------------4--------4--------


A|--------------------------------------------------
E|--------0--------0-----0--------0--------0-----0--
C|---4/6--------6-----------6-----------6-----------
G|-----------4--------4--------------4--------4-----


A|--------------------------------------------------
E|--------0--------0-----0--------0--------0-----0--
C|---6/8--------8-----------8-----------8-----------
G|-----------4--------4--------------4--------4-----


A|--0-----------0-----------2-----------2-----------
E|--------0--------0-----0--------0--------0--------
C|--------------------------------------------------
G|-----------4--------4--------------4--------4-----
tabs and chords, guitar tabs, music transcription, music technology, deep learning, music information retrieval, transcribe into tabs & chords, chordify, music renditions, songsterr, reverbnation, tabulature, bollywood chords, ultimate guitar, yousician, guitar lessons, acoustic guitar, electric guitar, guitar tuner, 911 tabs