Guitar Tabs for Cheap Thrills - Sia Tabs

(/) Slide Up  (\) Slide Down  (h) Hammer On  (p) Pull Off  (b) Bend (r) Release (v) Vibrato (x) Muted

Tabs for Song : Cheap Thrills

Come on, come on, turn the radio on It's Friday night and I won't be long
E|--------------------------------------------------------------------
B|--------------------------------------------------------------------
G|-----------------------11-11-11-11-9--9--9--9--9--9--9---9h11-9--9--
D|--9--11-9--11-11-9--11----------------------------------------------
A|--------------------------------------------------------------------
E|--------------------------------------------------------------------

Gotta do my hair, I put my make up on It's Friday night and I won't be long
E|--------------------------------------------------------------------
B|--------------------------------------------------------------------
G|--------------------------11-11-11-9--9--9--9--9--9--9---9h11-9--9--
D|--11-9--11-11-11-11-9--11-------------------------------------------
A|--------------------------------------------------------------------
E|--------------------------------------------------------------------

Til I hit the dance floor Hit the dance floor I got all I need
E|-----------------------------------------------------
B|--9--10-10-12-9--10-10-12-9--10--9/10-10-10----------
G|---------------------------------------------7/9--9--
D|-----------------------------------------------------
A|-----------------------------------------------------
E|-----------------------------------------------------

No I ain't got cash I ain't got cash But I got you baby
E|-----------------------------------------------------
B|-----9--10-12-9--10-10-12-9--10--9/10-10-10----------
G|--11-----------------------------------------7/9--9--
D|-----------------------------------------------------
A|-----------------------------------------------------
E|-----------------------------------------------------

Baby I don't need dollar bills to have fun tonight
E|--------------------------------------------------
B|-----9---9h10-------------------------9-----------
G|--11----------11-11-11-11-11-11-11-11----11-9--9--
D|--------------------------------------------------
A|--------------------------------------------------
E|--------------------------------------------------

Baby I don't need dollar bills to have fun tonight
E|--------------------------------------------------
B|-----9---9h10-------------------------9-----------
G|--11----------11-11-11-11-11-11-11-11----11-9--9--
D|--------------------------------------------------
A|--------------------------------------------------
E|--------------------------------------------------

But I don't need no money
E|-----------------------------
B|--------9--10--9p10----------
G|-----11-------------11-------
D|--11-------------------11-9--
A|-----------------------------
E|-----------------------------

As long as I can feel the beat
E|--------------------------------
B|-----------9--10--9p10----------
G|--------11-------------11-------
D|--11-11-------------------11-9--
A|--------------------------------
E|--------------------------------

I don't need no money
E|-----------------------------
B|--------9--10--9p10----------
G|-----11-------------11-------
D|--11-------------------11-9--
A|-----------------------------
E|-----------------------------

As long as I keep dancing
E|--------------------------------
B|-----------9--10--9p10----------
G|--------11-------------11-------
D|--11-11-------------------11-9--
A|--------------------------------
E|--------------------------------

Again Repeat Part One...
tabs and chords, guitar tabs, music transcription, music technology, deep learning, music information retrieval, transcribe into tabs & chords, chordify, music renditions, songsterr, reverbnation, tabulature, bollywood chords, ultimate guitar, yousician, guitar lessons, acoustic guitar, electric guitar, guitar tuner, 911 tabs