Guitar Tabs for Chasing Cars-snow Patrol Intro Tab

(/) Slide Up  (\) Slide Down  (h) Hammer On  (p) Pull Off  (b) Bend (r) Release (v) Vibrato (x) Muted

Tabs for Song : 
BPM : 250



                                                                          We'll do it all
E|--------------------------------------------------------------------------------------------------
B|-----2-----2-----2-----2-----2-----2-----2-----2-----2-----2-----2-----2-----2-----2-----2-----2--
G|--2-----2-----2-----2-----2-----2-----2-----2-----------------------------------------------------
D|--------------------------------------------------2-----2-----2-----2-----2-----2-----2-----2-----
A|--------------------------------------------------------------------------------------------------
E|--0-----------------------------------------------0-----------------------------------------------

                            everything                                      On our own 
E|-----------------------------------------------------2-----2-----2-----2-----2-----2-----2-----2--
B|-----2-----2-----2-----2-----2-----2-----2-----2--3-----3-----3-----3-----3-----3-----3-----3-----
G|--------------------------------------------------2-----------------------------------------------
D|--3-----3-----3-----3-----3-----3-----3-----3-----------------------------------------------------
A|--4-----------------------------------------------------------------------------------------------
E|--------------------------------------------------------------------------------------------------
                  
                                                                             We don't need 
E|--------------------------------------------------------------------------------------------------
B|-----2-----2-----2-----2-----2-----2-----2-----2-----2-----2-----2-----2-----2-----2-----2-----2--
G|--2-----2-----2-----2-----2-----2-----2-----2-----------------------------------------------------
D|--------------------------------------------------2-----2-----2-----2-----2-----2-----2-----2-----
A|--------------------------------------------------------------------------------------------------
E|--0-----------------------------------------------0-----------------------------------------------

                            anything                                        or anyone 
E|-----------------------------------------------------2-----2-----2-----2-----2-----2-----2-----2--
B|-----2-----2-----2-----2-----2-----2-----2-----2--3-----3-----3-----3-----3-----3-----3-----3-----
G|--------------------------------------------------2-----------------------------------------------
D|--3-----3-----3-----3-----3-----3-----3-----3-----------------------------------------------------
A|--4-----------------------------------------------------------------------------------------------
E|--------------------------------------------------------------------------------------------------

   If I lay here,                If I just lay here             WWould you lie with me and just forget the world 
E|--------------------------------------------------------------------------------------------------------------
B|--------------2-----------2-----------------2-----------2--------------------------2-----------2--------------
G|-----------2-----------2--------------------------------------------------------2-----------2-----------------
D|---------2----------2--------------------3-----------3-----------------------0-----------0--------------------
A|--------------------------------------4-----------4-----------------------------------------------------------
E|--------------------------------------------------------------------------------------------------------------
 
E|------------------------
B|--------2-----------2---
G|-----2-----------2------
D|--2-----------2---------
A|------------------------
E|------------------------

                                                     I don't quite know 
E|--------------------------------------------------------------------------------------------------
B|-----2-----2-----2-----2-----2-----2-----2-----2-----2-----2-----2-----2-----2-----2-----2-----2--
G|--2-----2-----2-----2-----2-----2-----2-----2-----------------------------------------------------
D|--------------------------------------------------2-----2-----2-----2-----2-----2-----2-----2-----
A|--------------------------------------------------------------------------------------------------
E|--0-----------------------------------------------0-----------------------------------------------

       How to say                                      How I feel 
E|-----------------------------------------------------2-----2-----2-----2-----2-----2-----2-----2--
B|-----2-----2-----2-----2-----2-----2-----2-----2--3-----3-----3-----3-----3-----3-----3-----3-----
G|--------------------------------------------------2-----------------------------------------------
D|--3-----3-----3-----3-----3-----3-----3-----3-----------------------------------------------------
A|--4-----------------------------------------------------------------------------------------------
E|--------------------------------------------------------------------------------------------------
                  
                                                       Those three words                
E|--------------------------------------------------------------------------------------------------
B|-----2-----2-----2-----2-----2-----2-----2-----2-----2-----2-----2-----2-----2-----2-----2-----2--
G|--2-----2-----2-----2-----2-----2-----2-----2-----------------------------------------------------
D|--------------------------------------------------2-----2-----2-----2-----2-----2-----2-----2-----
A|--------------------------------------------------------------------------------------------------
E|--0-----------------------------------------------0-----------------------------------------------

       I said too much                                 Yet not enough 
E|-----------------------------------------------------2-----2-----2-----2-----2-----2-----2-----2--
B|-----2-----2-----2-----2-----2-----2-----2-----2--3-----3-----3-----3-----3-----3-----3-----3-----
G|--------------------------------------------------2-----------------------------------------------
D|--3-----3-----3-----3-----3-----3-----3-----3-----------------------------------------------------
A|--4-----------------------------------------------------------------------------------------------
E|--------------------------------------------------------------------------------------------------



    






Use manual mode to free up cursor. Paste any tab in acousterr tab maker and we'll play it !!!
tabs and chords, guitar tabs, music transcription, music technology, deep learning, music information retrieval, transcribe into tabs & chords, chordify, music renditions, songsterr, reverbnation, tabulature, bollywood chords, ultimate guitar, yousician, guitar lessons, acoustic guitar, electric guitar, guitar tuner, 911 tabs