Guitar Tabs for Chand Mera Dil - Mohd. Rafi Tabs

(/) Slide Up  (\) Slide Down  (h) Hammer On  (p) Pull Off  (b) Bend (r) Release (v) Vibrato (x) Muted

Tabs for Song : Chand Mera Dil

chaand mera dil chaandni ho tum
E|-----------------------------------------
B|--10-12-13-13/17-15-------10-12-12/15-13-
G|--------------------10/12----------------
D|-----------------------------------------
A|-----------------------------------------
E|-----------------------------------------

chaand se hai door chaandni kahaan
E|-----------------------------------
B|--13-12-10-12/13----------10-12-10-
G|-----------------10-10-12----------
D|-----------------------------------
A|-----------------------------------
E|-----------------------------------

laut ke aana hai yahin tumko
E|-----------------------------------------
B|--10-12-13-13/17-15-------10-12-12/15-13-
G|--------------------10/12----------------
D|-----------------------------------------
A|-----------------------------------------
E|-----------------------------------------

jaa rahe ho tum jaao meri jaan
E|-----------------------------------
B|--13-12-10-12/13----------10-12-10-
G|-----------------10-10-12----------
D|-----------------------------------
A|-----------------------------------
E|-----------------------------------

waise to har kadam milenge log sanam
E|--------------------------------------------
B|--------------10-10-10-------------10-10-10-
G|--10/12-12-12-----------8/10-10-10----------
D|--------------------------------------------
A|--------------------------------------------
E|--------------------------------------------

milega na saccha pyaar mushkil se ho
E|-----------------------------------------------------
B|--10-11-13-13-13-13/15-13-11-10----------------------
G|--------------------------------12-12-12/14/15\14\10-
D|-----------------------------------------------------
A|-----------------------------------------------------
E|-----------------------------------------------------

dil ki dosti khel nahin koyi
E|--------------------------------------------
B|--------------10-10-10-------------10-10-10-
G|--10/12-12-12-----------8/10-10-10----------
D|--------------------------------------------
A|--------------------------------------------
E|--------------------------------------------

dil se dil hai milta yaar mushkil se
E|--------------------------------------
B|--10-11-13-13-13-13/15-13-11-10-------
G|--------------------------------12-12-
D|--------------------------------------
A|--------------------------------------
E|--------------------------------------

yehi to hai sanam pyaar ka thikana main hoon main hoon main hoon
E|-----------------------------------------------------------------
B|--------------12-12-12-12-12-13-12-12/13-12-13-------------------
G|--10/12-12-12----------------------------------12-12-13-13-14-14-
D|-----------------------------------------------------------------
A|-----------------------------------------------------------------
E|-----------------------------------------------------------------

chaand mera dil chaandni ho tum
E|-----------------------------------------
B|--10-12-13-13/17-15-------10-12-12/15-13-
G|--------------------10/12----------------
D|-----------------------------------------
A|-----------------------------------------
E|-----------------------------------------

chaand se hai door chaandni kahaan
E|-----------------------------------
B|--13-12-10-12/13----------10-12-10-
G|-----------------10-10-12----------
D|-----------------------------------
A|-----------------------------------
E|-----------------------------------

laut ke aana hai yahin tumko
E|-----------------------------------------
B|--10-12-13-13/17-15-------10-12-12/15-13-
G|--------------------10/12----------------
D|-----------------------------------------
A|-----------------------------------------
E|-----------------------------------------

jaa rahe ho tum jaao meri jaan
E|-----------------------------------
B|--13-12-10-12/13----------10-12-10-
G|-----------------10-10-12----------
D|-----------------------------------
A|-----------------------------------
E|-----------------------------------
tabs and chords, guitar tabs, music transcription, music technology, deep learning, music information retrieval, transcribe into tabs & chords, chordify, music renditions, songsterr, reverbnation, tabulature, bollywood chords, ultimate guitar, yousician, guitar lessons, acoustic guitar, electric guitar, guitar tuner, 911 tabs