Guitar Tabs for Chaand Sifarish - Fanaa Tabs

(/) Slide Up  (\) Slide Down  (h) Hammer On  (p) Pull Off  (b) Bend (r) Release (v) Vibrato

Tabs for Song : Chaand Sifarish

Hmm hmm hmm hmm
E|--------------------
B|--------------3-----
G|--2--3--2--2--------
D|--------------------
A|--------------------
E|--------------------

la la la la la
E|-----------------------
B|-----------------------
G|--2--2--3--2--0--0-----
D|-----------------------
A|-----------------------
E|-----------------------

hey hey hey hey hey..ahha
E|-----------------------------
B|-----------------------------
G|--------------2--------------
D|--2--3--2--2--------2--0-----
A|-----------------------------
E|-----------------------------

Subhaan Allaah Subhaan Allah 
E|-----1--0--1--0--1--3--3-----
B|--3--------------------------
G|-----------------------------
D|-----------------------------
A|-----------------------------
E|-----------------------------

Subhaan Allah Subhaan Allah... 
E|-----0-----0-----0--1--1-----
B|--1-----3-----3--------------
G|-----------------------------
D|-----------------------------
A|-----------------------------
E|-----------------------------

Chaand Sifarish Jo Karta Hamari
E|--------------------------------------------
B|--------------3-----------------------1-----
G|--2--3--2--2--------2--2--3--2--0--0--------
D|--------------------------------------------
A|--------------------------------------------
E|--------------------------------------------

Deta Woh Tumko Bata
E|--------------------------
B|--------------------------
G|--------------2-----------
D|--2--3--2--2-----2--0-----
A|--------------------------
E|--------------------------

Sharm-O-Haya Pe Parde Gira Ke
E|-----------------------------------------
B|--------------3--------------------1-----
G|--2--3--2--2-----2--2--3--2--0--0--------
D|-----------------------------------------
A|-----------------------------------------
E|-----------------------------------------

karni h humko khata
E|--------------------------
B|--------------------------
G|--------------2-----------
D|--2--3--2--2-----2--0-----
A|--------------------------
E|--------------------------

Zidd Hain Ab Toh Hain Khud Ko Mitana
E|-----------------0--0--1--0--------------
B|--1--1--1--1--3--------------3--2--2-----
G|-----------------------------------------
D|-----------------------------------------
A|-----------------------------------------
E|-----------------------------------------

Hona Hain Tujhmein Fanaa
E|--------------------------
B|--------------3--3--2-----
G|--3--3--3--3--------------
D|--------------------------
A|--------------------------
E|--------------------------

Teri Adaa Bhi Hain Jhonke Wali
E|--------------------------------------------
B|--------3--3--------------------------------
G|--2--3--------2--2--2--2--3--2--2--2--0-----
D|--------------------------------------------
A|--------------------------------------------
E|--------------------------------------------

Chhu Ke Gujar Jaane De
E|--------------------------
B|--------------------------
G|--0--2-----------3--2-----
D|--------2--2--3-----------
A|--------------------------
E|--------------------------

Teri Lachak Hain Ke Jaise Daali
E|--------------------------------------------
B|--------3--3--------------------------------
G|--2--3--------2--2--2--2--3--2--2--2--0-----
D|--------------------------------------------
A|--------------------------------------------
E|--------------------------------------------

Dil Mein Utar Jaane De
E|--------------------------
B|--------1--1--------------
G|--0--0--------0--3--2-----
D|--------------------------
A|--------------------------
E|--------------------------

Aaja Baahon Mein Karke Bahana
E|--------------0--0--1--0--------------
B|--1--1--1--3--------------3--3--------
G|--------------------------------3-----
D|--------------------------------------
A|--------------------------------------
E|--------------------------------------

Hona Hain Tujhmein Fanaa
E|-----------------0-----0-----
B|--------------3-----3--------
G|--3--3--3--3-----------------
D|-----------------------------
A|-----------------------------
E|-----------------------------

tabs and chords, guitar tabs, music contests, music covers, songsterr, reverbnation, renditions, tabulature, bollywood chords, ultimate guitar, yousician, guitar lessons, torrins, fender, gibson, acoustic guitar, electric guitar, youtube covers, gootar, guitar tuner, A-Z tabs, 911 tabs