Guitar Tabs for Cengo Go

 

E|-----------------------------------------------------------------------------------
B|-----------------------------------------------------------------------------------
G|--------0--3-----3--2-----2--2-----2--2-----2--3-----3---3\5--5-----5--5-----5--5--
D|-----0--------0--------0--------0--------0--------0--------------0--------0--------
A|-----------------------------------------------------------------------------------
E|--0--------------------------------------------------------------------------------



E|--0-----------------------------------------------
B|--------0--5--------5--3--------3--1--------1--0--
G|-----5-----------0-----------0-----------0--------
D|--------------------------------------------------
A|--------------------------------------------------
E|--0-----------0-----------0-----------0-----------





E|--------------------------------------
B|--------0--3--------3--1--------1--0--
G|-----0-----------0-----------0--------
D|--------------------------------------
A|--------------------------------------
E|--0-----------0-----------0-----------





E|--------------------------------------------------------------------------------------------------
B|--------0--5--------5--4--------4--7--------7--5--------5--8--------8--7--------7--5--------5--3--
G|-----0-----------0-----------0-----------0-----------0-----------0-----------0-----------0--------
D|--------------------------------------------------------------------------------------------------
A|--------------------------------------------------------------------------------------------------
E|--0-----------0-----------0-----------0-----------0-----------0-----------0-----------0-----------



E|--------------------------------------------------
B|--------3--1--------1--0--------0--0--------0--0--
G|-----0-----------0-----------0-----------0--------
D|--------------------------------------------------
A|--------------------------------------------------
E|--0-----------0-----------0-----------0-----------
tabs and chords, guitar tabs, music contests, music covers, songsterr, reverbnation, renditions, tabulature, bollywood chords, ultimate guitar, yousician, guitar lessons, torrins, fender, gibson, acoustic guitar, electric guitar, youtube covers, gootar, guitar tuner, A-Z tabs, 911 tabs