Guitar Tabs for Celtic Lullaby

(/) Slide Up  (\) Slide Down  (h) Hammer On  (p) Pull Off  (b) Bend (r) Release (v) Vibrato (x) Muted

Tabs for Song : 
BPM : 270

E|--------------------5-----6--5-----
B|-----6--------8-----6--------------
G|-----7-----------------------------
D|-----------------------------------
A|-----------------------------------
E|-----------------------------------

E|--------------------------------
B|--8--------5--------------5-----
G|--5--------------5-----7--------
D|--------------------------------
A|--------------------------------
E|--------------------------------

E|--------------------------------
B|--6-----------------------------
G|--7-----7--7-----7-----6--7-----
D|-----------------0--------------
A|--------------------------------
E|--------------------------------

E|--------------------
B|--5-----------------
G|--6--------6--------
D|-----------7-----7--
A|-----------------0--
E|--------------------

E|-----------1--------3-----5-----6--5--
B|-----------3--------------6-----------
G|-----------2--------------------------
D|-----------0--------------------------
A|--------------------------------------
E|--------------------------------------

E|--------------------------------
B|-----8--------5--------------5--
G|-----5--------------5-----7-----
D|-----5--------------5-----------
A|--------------------------------
E|--------------------------------

E|--------------------------------------
B|-----6-----5--------------------------
G|-----7-----------7-----6-----4-----6--
D|-----0--------------------------------
A|--------------------------------------
E|--------------------------------------

E|--------------------------
B|-----3--------------------
G|-----------------2--------
D|-----0-----------------0--
A|-----------------------0--
E|--------------------------



Paste any tab in acousterr's tab maker and we'll play it !!!
Now supports capo and sound effects for vibrato/pull-off/hammer/bends/mutes etc !!! Checkout help section
tabs and chords, guitar tabs, music transcription, music technology, deep learning, music information retrieval, transcribe into tabs & chords, chordify, music renditions, songsterr, reverbnation, tabulature, bollywood chords, ultimate guitar, yousician, guitar lessons, acoustic guitar, electric guitar, guitar tuner, 911 tabs