Bass Tabs for Celebration - Kool & The Gang

(/) Slide Up  (\) Slide Down  (h) Hammer On  (p) Pull Off  (b) Bend (r) Release (v) Vibrato (x) Muted

Tabs for Song : 

Intro x8
G|--------------------------------------------------
D|--------------------------------------------------
A|--------------------------------------------------
E|--1--1--2--2-----1-----2-----1-----4--4--4--4--4--

There a party going on right here..  x4
G|--------------------------------------
D|--------------------------------------
A|--------------------------------------
E|--4--4--4--4--4--4-----4--4--4--4--4--

It's time to    come together..     It's up to you..what's your pleasure       Everyone around the world, Come on !
G|--------------------------------------------------------------------------------------------
D|--------------------------------------------------------------------------------------1--1--
A|--4--4--------3--3-----------------------------------------------------------1--1-----------
E|-----------------------------------1--1-----------1--1--------------------------------------

Paste any tab in acousterr's tab maker and we'll play it !!!
Now supports capo and sound effects for vibrato/pull-off/hammer/bends/mutes etc !!! Checkout help section
tabs and chords, guitar tabs, music transcription, music technology, deep learning, music information retrieval, transcribe into tabs & chords, chordify, music renditions, songsterr, reverbnation, tabulature, bollywood chords, ultimate guitar, yousician, guitar lessons, acoustic guitar, electric guitar, guitar tuner, 911 tabs