Castle On The Hill - Ride - Guitar Tabs

Mark
    
                                                                                                                                                                                                                                                                                                                                                                                                                                                                                                                                                                                                                                                                                                                                                                                                                                                                                                                                                                                                                                                                                                                                                                                              
E|--0--2-------------------------------|0--2----------------------------|
B|--3----------------------------------|3-------------------------------|
G|--2----------------------------------|2-------------------------------|
D|-----------------------------------0-|---------0--0-----0--------0--0-|
A|-----------------0--------0--0--2----|------------0-----0---0p2-----0-|
E|-------------------------------------|--------------------------------|

    
                                                                                                                                                                                                                                                                                                                                                                                                                                                                                                                                                                                                                                                                                                                                                                                                                                                                                                                                                                                                                                                                                                                                                                                              
E|--0--2----------------------------|0--2----------------------------|
B|--3-------------------------------|3-------------------------------|
G|--2-------------------------------|2-------------------------------|
D|-----------0--------0--------0--0-|---------0--0-----0--------0--0-|
A|--------------0-----0---0p2-----0-|------------0-----0---0p2-----0-|
E|----------------------------------|--------------------------------|

    
                                                                                                                                                                                                                                                                                                                                                                                                                                                                                                                                                                                                                                                                                                                                                                                                                                                                                                                                                                                                                                                                                                                                                                                              
E|--0--2-----2--2--2------0p------2--0-|0--2-----2--2--2------0p------2--0-|
B|--3--------3--3--3--------------3----|3--------3--3--3--------------3----|
G|--2--------2--2--2--------------2----|2--------2--2--2--------------2----|
D|------------------------0p---0-------|----------------------0p---0-------|
A|------------------------0p2----------|----------------------0p2----------|
E|-------------------------------------|-----------------------------------|

    
                                                                                                                                                                                                                                                                                                                                                                                                                                                                                                                                                                                                                                                                                                                                                                                                                                                                                                                                                                                                                                                                                                                                                                                              
E|-----2-----2--2-----2--2--0-----0-----2-|0--0--0--3-----3--3-----3-------|
B|-----3-----3--3-----3--3--3-----3-----3-|0--0--0--3-----3--3-----3-------|
G|-----------2--2-----2--2--2-----2-----2-|4--4--4--4-----4--4-----4-------|
D|--0-------------------------------------|5--5--5--5-----5--5-----5-------|
A|----------------------------------------|5--5--5--5----------------------|
E|----------------------------------------|3--3--3--3----------------------|

    
                                                                                                                                                                                                                                                                                                                                                                                                                                                                                                                                                                                                                                                                                                                                                                                                                                                                                                                                                                                                                                                                                                                                                                                              
E|----------------------------------|2-----2--x--2-----x--2----|
B|----------------------------------|3-----3--x--3-----x--3----|
G|--3--3--3--x--3-----3-------------|2-----2--x--2-----x--2----|
D|--5--5--5--x--5-----5-----5--5----|--------------------------|
A|--5--5--5--x--5-----5-----5--5----|--------------------------|
E|--3--3--3-----3-----3-----3--3----|--------------------------|

    
                                                                                                                                                                                                                                                                                                                                                                                                                                                                                                                                                                                                                                                                                                                                                                                                                                                                                                                                                                                                                                                                                                                                                                                              
E|----------------------------------|--------------------------------------|
B|-----------------------0--0--x--x-|2--x--x--2----------------------------|
G|--1--1--1--1-----------1--1--1--x-|2--x--x--2--2--2--2--x--2-----2-----2-|
D|--2--2--2--2--2--2-----2--2--2--x-|2--x--x--2--2--2--2--x--2-----2-------|
A|--2--2--2--2--2--2----------------|0--x--x-----0--------x----------------|
E|--0--0-----0--0--0----------------|--------------------------------------|

    
                                                                                                                                                                                                                                                                                                                                                                                                                                                                                                                                                                                                                                                                                                                                                                                                                                                                                                                                                                                                                                                                                                                                                                                              
E|--0--2-----2--2--2------0p------2--0-|0--2-----2--2--2------0p------2--0-|
B|--3--------3--3--3--------------3----|3--------3--3--3--------------3----|
G|--2--------2--2--2--------------2----|2--------2--2--2--------------2----|
D|------------------------0p---0-------|----------------------0p---0-------|
A|------------------------0p2----------|----------------------0p2----------|
E|-------------------------------------|-----------------------------------|

    
                                                                                                                                                                                                                                                                                                                                                                                                                                                                                                                                                                                                                                                                                                                                                                                                                                                                                                                                                                                                                                                                                                                                                                                              
E|-----2--------2-----0--2--0----|0--0--0--3-----3--3-----3-----x-|
B|-----3--------3-----3--3-------|0--0--0--3-----3--3-----3-----x-|
G|--------------2-----2--2-------|4--4--4--4-----4--4-----4-----x-|
D|--0--------0-------------------|5--5--5--5-----5--5-----5-----x-|
A|-------------------------------|5--5--5--5--------------------x-|
E|-------------------------------|3--3--3--3----------------------|

    
                                                                                                                                                                                                                                                                                                                                                                                                                                                                                                                                                                                                                                                                                                                                                                                                                                                                                                                                                                                                                                                                                                                                                                                              
E|----------------------------------|0--2-----2--2--2------0p------2--0-|
B|----------------------------------|3--------3--3--3--------------3----|
G|--3--3--3--x--3-----3-------------|2--------2--2--2--------------2----|
D|--5--5--5--x--5-----5-----5--5----|----------------------0p---0-------|
A|--5--5--5--x--5-----5-----5--5----|----------------------0p2----------|
E|--3--3--3-----3-----3-----3--3----|-----------------------------------|

    
                                                                                                                                                                                                                                                                                                                                                                                                                                                                                                                                                                                                                                                                                                                                                                                                                                                                                                                                                                                                                                                                                                                                                                                              
E|----------------------------------|--------------------------------------|
B|-----------------------0--0--x--x-|2--x--x--2----------------------------|
G|--1--1--1--1-----------1--1--1--x-|2--x--x--2--2--2--2--x--2-----2-----2-|
D|--2--2--2--2--2--2-----2--2--2--x-|2--x--x--2--2--2--2--x--2-----2-------|
A|--2--2--2--2--2--2----------------|0--x--x-----0--------x----------------|
E|--0--0-----0--0--0----------------|--------------------------------------|

    
                                                                                                                                                                                                                                                                                                                                                                                                                                                                                                                                                                                                                                                                                                                                                                                                                                                                                                                                                                                                                                                                                                                                                                                              
E|--3--3--3--x--x-----3-----3--3--3-|0--2-----2--2--2------0p------2--0-|
B|--3--3--3--x--x-----3-----3--3--3-|3--------3--3--3--------------3----|
G|--4--4--4--x--x--4--4-----4--4--4-|2--------2--2--2--------------2----|
D|--x--5--5--x--x--5--5-------------|----------------------0p---0-------|
A|--5--5--5-----------5-------------|----------------------0p2----------|
E|--3--3--3-----------3-------------|-----------------------------------|

    
                                                                                                                                                                                                                                                                                                                                                                                                                                                                                                                                                                                                                                                                                                                                                                                                                                                                                                                                                                                                                                                                                                                                                                                              
E|----------------------------------------|0--2-----2--2--2------0p------2--0-|
B|--2--x--x--2----------------------------|3--------3--3--3--------------3----|
G|--2--x--x--2--2--2--2--x--2-----2-----2-|2--------2--2--2--------------2----|
D|--2--x--x--2--2--2--2--x--2-----2-------|----------------------0p---0-------|
A|--0--x--x-----0--------x----------------|----------------------0p2----------|
E|----------------------------------------|-----------------------------------|

    
                                                                                                                                                                                                                                                                                                                                                                                                                                                                                                                                                                                                                                                                                                                                                                                                                                                                                                                                                                                                                                                                                                                                                                                              
E|--3--3--3--x--x-----3-----3--------x--3--3-|2-----2--2--2-----x--x--2-------|
B|--3--3--3--x--x-----3-----3--------x--3--3-|3-----3--3--3-----x--x--3-------|
G|--4--4--4--x--x--4--4-----4--------x--4--4-|2-----2--2--2-----x--x--2-------|
D|--x--5--5--x--x--5--5-----5--------x-------|------------------x--x----------|
A|--5--5--5-----------5-----5--------x-------|------------------x--x----------|
E|--3--3--3-----------3-----3----------------|------------------x-------------|

    
                                                                                                                                                                                                                                                                                                                                                                                                                                                                                                                                                                                                                                                                                                                                                                                                                                                                                                                                                                                                                                                                                                                                                                                              
E|-----------x----------------------|---x--------x--2-------------|
B|--2-----2--x--2-----0-------------|2--x--------x--3-------------|
G|--2-----2--x--2-----0-------------|2--x--------x--2-------------|
D|--2-----2--x--2-----0-----5--5----|2--x--5-----x----------------|
A|-----------x--0-----------5--5----|0--x--5-----x----------------|
E|--------------------------3--3----|---x--3-----x----------------|

    
                                                                                                                                                                                                                                                                                                                                                                                                                                                                                                                                                                                                                                                                                                                                                                                                                                                                                                                                                                                                                                                                                                                                                                                              
E|--0--2-----2--2--2-----0--2--0-|2-----2--2--2-----0--2--0-|
B|--3--------3--3--3--------3--3-|3-----3--3--3-----3--3----|
G|--2--------2--2--2--------2--2-|2-----2--2--------2--2----|
D|-------------------------------|--------------------------|
A|-------------------------------|--------------------------|
E|-------------------------------|--------------------------|

    
                                                                                                                                                                                                                                                                                                                                                                                                                                                                                                                                                                                                                                                                                                                                                                                                                                                                                                                                                                                                                                                                                                                                                                                              
E|--0--2-----2--2--2-----0--2--0-|0--0--0--3-----3--3-----3-------|
B|--3--------3--3--3-----3--3----|0--0--0--3-----3--3-----3-------|
G|--2--------2--2--2-----2--2----|4--4--4--4-----4--4-----4-------|
D|-------------------------------|5--5--5--5-----5--5-----5-------|
A|-------------------------------|5--5--5--5----------------------|
E|-------------------------------|3--3--3--3----------------------|

    
                                                                                                                                                                                                                                                                                                                                                                                                                                                                                                                                                                                                                                                                                                                                                                                                                                                                                                                                                                                                                                                                                                                                                                                              
E|----------------------------------|0--2-----2--2--2------0p------2--0-|
B|----------------------------------|3--------3--3--3--------------3----|
G|--3--3--3--x--3-----3-------------|2--------2--2--2--------------2----|
D|--5--5--5--x--5-----5-----5--5----|----------------------0p---0-------|
A|--5--5--5--x--5-----5-----5--5----|----------------------0p2----------|
E|--3--3--3-----3-----3-----3--3----|-----------------------------------|

    
                                                                                                                                                                                                                                                                                                                                                                                                                                                                                                                                                                                                                                                                                                                                                                                                                                                                                                                                                                                                                                                                                                                                                                                              
E|-------------------------------|-----------------------------------|
B|--------------------0--0-------|2--2--2----------------------------|
G|--1--1--1-----------1--1--1----|2--2--2-----2--2-----2-----2-----2-|
D|--2--2--2--2--2-----2--2--2----|2--2--2--2--2--2-----2-----2-------|
A|--2--2--2--2--2----------------|0--0-------------------------------|
E|--0--0--0--0--0----------------|-----------------------------------|

    
                                                                                                                                                                                                                                                                                                                                                                                                                                                                                                                                                                                                                                                                                                                                                                                                                                                                                                                                                                                                                                                                                                                                                                                              
E|--0--2-----2--2--2-----0--2--0-|0--2-----2--2--2------0p------2--0-|
B|--3--------3--3--3--------3--3-|3--------3--3--3--------------3----|
G|--2--------2--2--2--------2--2-|2--------2--2--2--------------2----|
D|-------------------------------|----------------------0p---0-------|
A|-------------------------------|----------------------0p2----------|
E|-------------------------------|-----------------------------------|

    
                                                                                                                                                                                                                                                                                                                                                                                                                                                                                                                                                                                                                                                                                                                                                                                                                                                                                                                                                                                                                                                                                                                                                                                              
E|--0--2-----2--2--2-----0--2--0-|0--0--0--3-----3--3-----3-------|
B|--3--------3--3--3-----3--3----|0--0--0--3-----3--3-----3-------|
G|--2--------2--2--2-----2--2----|4--4--4--4-----4--4-----4-------|
D|-------------------------------|5--5--5--5-----5--5-----5-------|
A|-------------------------------|5--5--5--5----------------------|
E|-------------------------------|3--3--3--3----------------------|

    
                                                                                                                                                                                                                                                                                                                                                                                                                                                                                                                                                                                                                                                                                                                                                                                                                                                                                                                                                                                                                                                                                                                                                                                              
E|----------------------------------|0--2-----2--2--2------0p------2--0-|
B|----------------------------------|3--------3--3--3--------------3----|
G|--3--3--3--x--3-----3-------------|2--------2--2--2--------------2----|
D|--5--5--5--x--5-----5-----5--5----|----------------------0p---0-------|
A|--5--5--5--x--5-----5-----5--5----|----------------------0p2----------|
E|--3--3--3-----3-----3-----3--3----|-----------------------------------|

    
                                                                                                                                                                                                                                                                                                                                                                                                                                                                                                                                                                                                                                                                                                                                                                                                                                                                                                                                                                                                                                                                                                                                                                                              
E|----------------------------------|--------------------------------------|
B|-----------------------0--0--x--x-|2--x--x--2----------------------------|
G|--1--1--1--1-----------1--1--1--x-|2--x--x--2--2--2--2--x--2-----2-----2-|
D|--2--2--2--2--2--2-----2--2--2--x-|2--x--x--2--2--2--2--x--2-----2-------|
A|--2--2--2--2--2--2----------------|0--x--x-----0--------x----------------|
E|--0--0-----0--0--0----------------|--------------------------------------|

    
                                                                                                                                                                                                                                                                                                                                                                                                                                                                                                                                                                                                                                                                                                                                                                                                                                                                                                                                                                                                                                                                                                                                                                                              
E|--3--3--3--x--x-----3-----3--3--3-|0--2-----2--2--2------0p------2--0-|
B|--3--3--3--x--x-----3-----3--3--3-|3--------3--3--3--------------3----|
G|--4--4--4--x--x--4--4-----4--4--4-|2--------2--2--2--------------2----|
D|--x--5--5--x--x--5--5-------------|----------------------0p---0-------|
A|--5--5--5-----------5-------------|----------------------0p2----------|
E|--3--3--3-----------3-------------|-----------------------------------|

    
                                                                                                                                                                                                                                                                                                                                                                                                                                                                                                                                                                                                                                                                                                                                                                                                                                                                                                                                                                                                                                                                                                                                                                                              
E|----------------------------------------|2-----2--x--2-----x--x--2-----2----|
B|--2--x--x--2----------------------------|3-----3--x--3-----x--x--3-----3----|
G|--2--x--x--2--2--2--2--x--2-----2-----2-|2-----2--x--2-----x--x--2-----2----|
D|--2--x--x--2--2--2--2--x--2-----2-------|------------------x--x-------------|
A|--0--x--x-----0--------x----------------|------------------x--x-------------|
E|----------------------------------------|------------------x----------------|

    
                                                                                                                                                                                                                                                                                                                                                                                                                                                                                                                                                                                                                                                                                                                                                                                                                                                                                                                                                                                                                                                                                                                                                                                              
E|--3--3--3--x--x-----3-----3--------x--3--3-|2-----2--x--2-----x--x--2-----2----|
B|--3--3--3--x--x-----3-----3--------x--3--3-|3-----3--x--3-----x--x--3-----3----|
G|--4--4--4--x--x--4--4-----4--------x--4--4-|2-----2--x--2-----x--x--2-----2----|
D|--x--5--5--x--x--5--5-----5--------x-------|------------------x--x-------------|
A|--5--5--5-----------5-----5--------x-------|------------------x--x-------------|
E|--3--3--3-----------3-----3----------------|------------------x----------------|

    
                                                                                                                                                                                                                                                                                                                                                                                                                                                                                                                                                                                                                                                                                                                                                                                                                                                                                                                                                                                                                                                                                                                                                                                              
E|-----------x----------------------|---x--------x--2----------------|
B|--2-----2--x--2-----0-------------|2--x--------x--3-----x----------|
G|--2-----2--x--2-----0-------------|2--x--------x--2-----x--0--0----|
D|--2-----2--x--2-----0-----5--5----|2--x--5-----x--------x--0--0--0-|
A|-----------x--0-----------5--5----|0--x--5-----x-------------------|
E|--------------------------3--3----|---x--3-----x-------------------|

    
                                                                                                                                                                                                                                                                                                                                                                                                                                                                                                                                                                                                                                                                                                                                                                                                                                                                                                                                                                                                                                                                                                                                                                                              
E|-----------x----------------------|---x--------x--2-------------|
B|--2-----2--x--2-----0-------------|2--x--------x--3-------------|
G|--2-----2--x--2-----0-------------|2--x--------x--2-------------|
D|--2-----2--x--2-----0-----5--5----|2--x--5-----x----------------|
A|-----------x--0-----------5--5----|0--x--5-----x----------------|
E|--------------------------3--3----|---x--3-----x----------------|
tabs and chords, guitar tabs, music transcription, music technology, deep learning, music information retrieval, transcribe into tabs & chords, chordify, music renditions, songsterr, reverbnation, tabulature, bollywood chords, ultimate guitar, yousician, guitar lessons, acoustic guitar, electric guitar, guitar tuner, 911 tabs