Cask Of Amontillado - Michael Romeo - Guitar Tabs

Rhythm Guitar
    
                                                                                                                                                                                                                                                                                                                                                                                                                                                                                                                                                                                                                                                                                                                                                                                                                                                                                                                                                                                                                                                                                                                                                                                              
E|----------------------------------------------|-----------------------------------------------|
B|----------------------------------------------|-----------------------------------------------|
G|----------------------------------------------|-----------------------------------------------|
D|----------------------------------------------|-----------------------------------------------|
A|--2-------------------------------------------|-----------------------------------------------|
E|--0--0--0--0--0--0--0--0--0--0--0--0--0--0--0-|0--0--0--0--0--0--0--0--0--0--0--0--0--0--0--0-|

    
                                                                                                                                                                                                                                                                                                                                                                                                                                                                                                                                                                                                                                                                                                                                                                                                                                                                                                                                                                                                                                                                                                                                                                                              
E|-------------------------------------------------|-----------------------------------------------|
B|-------------------------------------------------|-----------------------------------------------|
G|-------------------------------------------------|-----------------------------------------------|
D|-------------------------------------------------|-----------------------------------------------|
A|-------------------------------------------------|-----------------------------------------------|
E|--0--0--0--0--0--0--0--0--0--0--0--0--0--0--0--0-|0--0--0--0--0--0--0--0--0--0--0--0--0--0--0--0-|

    
                                                                                                                                                                                                                                                                                                                                                                                                                                                                                                                                                                                                                                                                                                                                                                                                                                                                                                                                                                                                                                                                                                                                                                                              
E|----------------------------------------------|-----------------------------------------------|
B|----------------------------------------------|-----------------------------------------------|
G|----------------------------------------------|-----------------------------------------------|
D|----------------------------------------------|-----------------------------------------------|
A|--2-------------------------------------------|-----------------------------------------------|
E|--0--0--0--0--0--0--0--0--0--0--0--0--0--0--0-|0--0--0--0--0--0--0--0--0--0--0--0--0--0--0--0-|

    
                                                                                                                                                                                                                                                                                                                                                                                                                                                                                                                                                                                                                                                                                                                                                                                                                                                                                                                                                                                                                                                                                                                                                                                              
E|----------------------------------------------|-----------------------------------------------|
B|----------------------------------------------|-----------------------------------------------|
G|----------------------------------------------|-----------------------------------------------|
D|----------------------------------------------|-----------------------------------------------|
A|--3-------------------------------------------|-----------------------------------------------|
E|--1--1--1--1--1--1--1--1--1--1--1--1--1--1--1-|1--1--1--1--1--1--1--1--1--1--1--1--1--1--1--1-|

    
                                                                                                                                                                                                                                                                                                                                                                                                                                                                                                                                                                                                                                                                                                                                                                                                                                                                                                                                                                                                                                                                                                                                                                                              
E|----------------------------------------------|-----------------------------------------------|
B|----------------------------------------------|-----------------------------------------------|
G|----------------------------------------------|-----------------------------------------------|
D|----------------------------------------------|-----------------------------------------------|
A|--2-------------------------------------------|-----------------------------------------------|
E|--0--0--0--0--0--0--0--0--0--0--0--0--0--0--0-|0--0--0--0--0--0--0--0--0--0--0--0--0--0--0--0-|

    
                                                                                                                                                                                                                                                                                                                                                                                                                                                                                                                                                                                                                                                                                                                                                                                                                                                                                                                                                                                                                                                                                                                                                                                              
E|----------------------------------------------|--------------------------------------|
B|----------------------------------------------|--------------------------------------|
G|----------------------------------------------|--------------------------------------|
D|----------------------------------------------|--------------------------------------|
A|--6-------------------------------------------|6--------------6--------------6-------|
E|--4--4--4--4--4--4--4--4--4--4--4--4--4--4--4-|4--4--4--4--4--4--4--4--4--4--4--4--4-|

    
                                                                                                                                                                                                                                                                                                                                                                                                                                                                                                                                                                                                                                                                                                                                                                                                                                                                                                                                                                                                                                                                                                                                                                                              
E|----------------------------------------------|-----------------------------------------------|
B|----------------------------------------------|-----------------------------------------------|
G|----------------------------------------------|-----------------------------------------------|
D|----------------------------------------------|-----------------------------------------------|
A|--2-------------------------------------------|-----------------------------------------------|
E|--0--0--0--0--0--0--0--0--0--0--0--0--0--0--0-|0--0--0--0--0--0--0--0--0--0--0--0--0--0--0--0-|

    
                                                                                                                                                                                                                                                                                                                                                                                                                                                                                                                                                                                                                                                                                                                                                                                                                                                                                                                                                                                                                                                                                                                                                                                              
E|----------------------------------------------|-----------------------------------------------|
B|----------------------------------------------|-----------------------------------------------|
G|----------------------------------------------|-----------------------------------------------|
D|----------------------------------------------|-----------------------------------------------|
A|--3-------------------------------------------|-----------------------------------------------|
E|--1--1--1--1--1--1--1--1--1--1--1--1--1--1--1-|1--1--1--1--1--1--1--1--1--1--1--1--1--1--1--1-|

    
                                                                                                                                                                                                                                                                                                                                                                                                                                                                                                                                                                                                                                                                                                                                                                                                                                                                                                                                                                                                                                                                                                                                                                                              
E|----------------------------------------------|-----------------------------------------------|
B|----------------------------------------------|-----------------------------------------------|
G|----------------------------------------------|-----------------------------------------------|
D|----------------------------------------------|-----------------------------------------------|
A|--2-------------------------------------------|-----------------------------------------------|
E|--0--0--0--0--0--0--0--0--0--0--0--0--0--0--0-|0--0--0--0--0--0--0--0--0--0--0--0--0--0--0--0-|

    
                                                                                                                                                                                                                                                                                                                                                                                                                                                                                                                                                                                                                                                                                                                                                                                                                                                                                                                                                                                                                                                                                                                                                                                              
E|-------------------------|-----------------------|
B|-------------------------|-----------------------|
G|-------------------------|-----------------------|
D|-------------------------|-----------------------|
A|--6----------------------|6----------------------|
E|--4----------------------|4----------------------|

    
                                                                                                                                                                                                                                                                                                                                                                                                                                                                                                                                                                                                 
E|-------------------------|
B|-------------------------|
G|-------------------------|
D|-------------------------|
A|--6----------------------|
E|--4----------------------|

    
                                                                                                                                                                                                                                                                                                                                                                                                                                                                                                                                                                                                 
E|-------------------------|
B|-------------------------|
G|-------------------------|
D|-------------------------|
A|--6----------------------|
E|--4----------------------|

    
                                                                                                                                                                                                                                                                                                                                                                                                                                                                                                                                                                                                                                                                                                                                                                                                                                                                                                                                                                                                                                                                                                                                                                                              
E|-------------------------------------|-----------------------------------|
B|-------------------------------------|-----------------------------------|
G|-------------------------------------|-----------------------------------|
D|-------------------------------------|-----------------------------------|
A|--2----------------------------------|2----------------------------------|
E|--0--0--0--0--0--0--0--0--0--0--0--0-|0--0--0--0--0--0--0--0--0--0--0--0-|

    
                                                                                                                                                                                                                                                                                                                                                                                                                                                                                                                                                                                                 
E|-------------------------|
B|-------------------------|
G|-------------------------|
D|-------------------------|
A|--6----------------------|
E|--4----------------------|

    
                                                                                                                                                                                                                                                                                                                                                                                                                                                                                                                                                                                                                                                                                                                                                                                                                                                                                                                                                                                                                                                                                                                                                                                              
E|-------------------------------------|-----------------------------------|
B|-------------------------------------|-----------------------------------|
G|-------------------------------------|-----------------------------------|
D|--7----------------------------------|7----------------------------------|
A|--5--5--5--5--5--5--5--5--5--5--5--5-|5--5--5--5--5--5--5--5--5--5--5--5-|
E|-------------------------------------|-----------------------------------|

    
                                                                                                                                                                                                                                                                                                                                                                                                                                                                                                                                                                                                 
E|-------------------------|
B|-------------------------|
G|-------------------------|
D|-------------------------|
A|--6----------------------|
E|--4----------------------|

    
                                                                                                                                                                                                                                                                                                                                                                                                                                                                                                                                                                                                                                                                                                                                                                                                                                                                                                                                                                                                                                                                                                                                                                                              
E|-------------------------------------|-----------------------------------|
B|-------------------------------------|-----------------------------------|
G|-------------------------------------|-----------------------------------|
D|-------------------------------------|-----------------------------------|
A|--2----------------------------------|2----------------------------------|
E|--0--0--0--0--0--0--0--0--0--0--0--0-|0--0--0--0--0--0--0--0--0--0--0--0-|

    
                                                                                                                                                                                                                                                                                                                                                                                                                                                                                                                                                                                                 
E|-------------------------|
B|-------------------------|
G|-------------------------|
D|-------------------------|
A|--6----------------------|
E|--4----------------------|

    
                                                                                                                                                                                                                                                                                                                                                                                                                                                                                                                                                                                                                                                                                                                                                                                                                                                                                                                                                                                                                                                                                                                                                                                              
E|-------------------------|-----------------------|
B|-------------------------|-----------------------|
G|-------------------------|-----------------------|
D|--4-----------7----------|10----------13---------|
A|--2--2--2--2--5--5--5--5-|8--8--8--8--11---------|
E|-------------------------|-----------------------|

    
                                                                                                                                                                                                                                                                                                                                                                                                                                                                                                                                                                                                                                                                                                                                                                                                                                                                                                                                                                                                                                                                                                                                                                                              
E|-------------------------|-----------------------|
B|-------------------------|-----------------------|
G|-------------------------|-----------------------|
D|--2----------------------|-----------------------|
A|--0----------------------|2----------------------|
E|-------------------------|0----------------------|

    
                                                                                                                                                                                                                                                                                                                                                                                                                                                                                                                                                                                                                                                                                                                                                                                                                                                                                                                                                                                                                                                                                                                                                                                              
E|-------------------------|-----------------------|
B|-------------------------|-----------------------|
G|-------------------------|-----------------------|
D|--2----------------------|-----------------------|
A|--0----------------------|5----------------------|
E|-------------------------|3----------------------|

    
                                                                                                                                                                                                                                                                                                                                                                                                                                                                                                                                                                                                                                                                                                                                                                                                                                                                                                                                                                                                                                                                                                                                                                                              
E|-------------------------|-----------------------|
B|-------------------------|-----------------------|
G|-------------------------|-----------------------|
D|--5-----------5-----4----|9-----------9-----7----|
A|--3-----5-----3-----2----|7-----9-----7-----5----|
E|--------3----------------|------7----------------|

    
                                                                                                                                                                                                                                                                                                                                                                                                                                                                                                                                                                                                                                                                                                                                                                                                                                                                                                                                                                                                                                                                                                                                                                                              
E|-------------------------|-----------------------|
B|-------------------------|-----------------------|
G|-------------------------|-----------------------|
D|--12----7----------------|5-----4----------------|
A|--10----5----------------|3-----2----------------|
E|-------------------------|-----------------------|

    
                                                                                                                                                                                                                                                                                                                                                                                                                                                                                                                                                                                                                                                                                                                                                                                                                                                                                                                                                                                                                                                                                                                                                                                              
E|-------------------------|-----------------------|
B|-------------------------|-----------------------|
G|-------------------------|-----------------------|
D|--7----------------------|-----------------------|
A|--5----------------------|7----------------------|
E|-------------------------|5----------------------|

    
                                                                                                                                                                                                                                                                                                                                                                                                                                                                                                                                                                                                                                                                                                                                                                                                                                                                                                                                                                                                                                                                                                                                                                                              
E|-------------------------|-----------------------|
B|-------------------------|-----------------------|
G|-------------------------|-----------------------|
D|--7----------------------|5----------------------|
A|--5----------------------|3----------------------|
E|-------------------------|-----------------------|

    
                                                                                                                                                                                                                                                                                                                                                                                                                                                                                                                                                                                                                                                                                                                                                                                                                                                                                                                                                                                                                                                                                                                                                                                              
E|-------------------------|-----------------------|
B|-------------------------|-----------------------|
G|-------------------------|-----------------------|
D|--10----------10----9----|14----------14----12---|
A|--8-----10----8-----7----|12----14----12----10---|
E|--------8----------------|------12---------------|

    
                                                                                                                                                                                                                                                                                                                                                                                                                                                                                                                                                                                                                                                                                                                                                                                                                                                                                                                                                                                                                                                                                                                                                                                              
E|-------------------------|-----------------------|
B|-------------------------|-----------------------|
G|-------------------------|-----------------------|
D|--5-----12---------------|10----9----------------|
A|--3-----10---------------|8-----7----------------|
E|-------------------------|-----------------------|

    
                                                                                                                                                                                                                                                                                                                                                                                                                                                                                                                                                                                                                                                                                                                                                                                                                                                                                                                                                                                                                                                                                                                                                                                              
E|-------------------------|--------------------------------|
B|-------------------------|--------------------------------|
G|-------------------------|--------------------------------|
D|--6--------6--6--------6-|6--------6--6-------------------|
A|--4--4--4--4--4--4--4--4-|4--4--4--4--4--4--6--7--6--4----|
E|-------------------------|------------------------------7-|

    
                                                                                                                                                                                                                                                                                                                                                                                                                                                                                                                                                                                                                                                                                                                                                                                                                                                                                                                                                                                                                                                                                                                                                                                              
E|-------------------------|-----------------------------|
B|-------------------------|-----------------------------|
G|-------------------------|-----------------------------|
D|--6--------6--6--------6-|6-----------7-----8-----9----|
A|--4--4--4--4--4--4--4--4-|4--4--4--4--5-----6-----7----|
E|-------------------------|-----------------------------|

    
                                                                                                                                                                                                                                                                                                                                                                                                                                                                                                                                                                                                                                                                                                                                                                                                                                                                                                                                                                                                                                                                                                                                                                                              
E|-------------------------|--------------------------------|
B|-------------------------|--------------------------------|
G|-------------------------|--------------------------------|
D|--6--------6--6--------6-|6--------6--6-------------------|
A|--4--4--4--4--4--4--4--4-|4--4--4--4--4--4--6--7--6--4----|
E|-------------------------|------------------------------7-|

About The Dark Chapter : The Dark Chapter is the first studio album by Symphony X guitarist Michael Romeo . Released in April 1994 through Zero Corporation (Japan) and re Originally recorded in 1992 as a demo tape which Romeo had sent out to various guitar publications . Japanese record label Zero Corporation expressed interest in further material . Several track titles are references to works by Edgar Allan Poe . The cover art portrays a raven, in reference to Poe's poem "The Raven", and guitar . It had a contribution from notable artists like Michael Romeo. It had an affiliation to bands - The Dark Chapter. Its music is influenced by genres - instrumental rock , progressive metal , neoclassical metal.

tabs and chords, guitar tabs, music transcription, music technology, deep learning, music information retrieval, transcribe into tabs & chords, chordify, music renditions, songsterr, reverbnation, tabulature, bollywood chords, ultimate guitar, yousician, guitar lessons, acoustic guitar, electric guitar, guitar tuner, 911 tabs