Bass Tabs for Cars Hiss By My Window

(/) Slide Up  (\) Slide Down  (h) Hammer On  (p) Pull Off  (b) Bend (r) Release (v) Vibrato (x) Muted

Tabs for Song : 
BPM : 72

Song lyrics here 
G|--------------------------------------------------
D|--------------------------------------------------
A|--------------2--2--4--2--------------2--4--4--2--
E|--0--0--3--4--------------0--0--3--4--------------

Song lyrics here 
G|--------------------------------------------------
D|--------------2--2--4--2--------------2--2--4--2--
A|--0--0--3--4--------------------------------------
E|--------------------------0--0--3--4--------------

Use manual mode to free up cursor. Paste any tab in acousterr tab maker and we'll play it !!!


G|--------------------------------------------------
D|--------------4--4--6--4--------------2--2--4--2--
A|--2--2--5--6--------------0--0--3--4--------------
E|--------------------------------------------------

G|-----------------------------------------
D|--------------------------2-----------0--
A|--------------2--2--4--2-----0--1--2-----
E|--0--0--3--4-----------------------------
tabs and chords, guitar tabs, music transcription, music technology, deep learning, music information retrieval, transcribe into tabs & chords, chordify, music renditions, songsterr, reverbnation, tabulature, bollywood chords, ultimate guitar, yousician, guitar lessons, acoustic guitar, electric guitar, guitar tuner, 911 tabs