Bass Tabs for Carry On My Wayward Son - Kansas (bass Tabs)

BPM : 127

G|-----------------------------------------------------------
D|-----------------------------------5----------------------- (x2)
A|-----------3--------------5-----7-----7--5--3--5-----5-----
E|--5--3--5--------5--3--5--------------------------3-----2--

G|-----------------------------------------
D|--------------------------------5-------- (x4)
A|-----------7--7--------------5-----5--7--
E|--0--0--------------0--5--7--------------

G|-----------------------------------------------------------
D|-----------------------------------5----------------------- (x2)
A|-----------3--------------5-----7-----7--5--3--5-----5-----
E|--5--3--5--------5--3--5--------------------------3-----2--

G|-----------------------------------------
D|--------------------------------5-------- (x2)
A|-----------7--7--------------5-----5--7--
E|--0--0--------------0--5--7--------------

G|--------------------------
D|--------7--5--------------
A|-----7--------5-----------
E|--5--------------3-----1--

G|-----------------------------------------------------------
D|--5--7--5--3-----------------------------------------------
A|--------------3--------------------3--5--3--1--1--3--5--3--
E|-----------------3--5--3--1--3--5--------------------------

G|-----------------------
D|--5--------------------
A|-----5--------0--2-----
E|--------3--3--------3--

G|--------------------------------------------x-----x--------------------------------x--------
D|--------------------------------------------x-----x--------------------------------x--------
A|--0--2--3--------------------0--2--3--------x-----x-----0--2--3--------------------x--5--3--
E|-----------0--3--3--1--3--0-----------0--3--x--0--x--3-----------0--3--3--1--0--1--x--------

G|-----------------------------------------------------------------------------------------------------
D|--------------------------------------------------------------------------------------5-------------- (x2)
A|--------------------------------------------------3--5--5--3--3--1--1--3--5--5--3--3-----5-----------
E|--5--5--3--3--1--1--3--3--5--5--3--3--1--1--3--5--------------------------------------------3--3--0--

G|--------------------------------------------x-----x--------------------------------
D|--------------------------------------------x-----x--------------------------------
A|--0--2--3--------------------0--2--3--------x-----x-----0--2--3--------------------
E|-----------0--3--3--1--3--0-----------0--3--x--0--x--3-----------0--3--3--1--0--1--

G|-----------------------------x-----x-----x-----x-----
D|-----7--5--------------------x-----x-----x-----x-----
A|-----------7--5--3--0--3--5--x-----x-----x--5--x--3--
E|--5--------------------------x--3--x--5--x-----x-----

G|-----------------------------x-----x-----x-----
D|-----7--5--------------------x-----x-----x-----
A|-----------7--5--3--0--3--5--x-----x-----x--5--
E|--5--------------------------x--3--x--5--x-----

G|-----------------------------x-----x-----x-----x-----
D|-----7--5--------------------x-----x-----x-----x-----
A|-----------7--5--3--0--3--5--x-----x-----x--5--x--3--
E|--5--------------------------x--3--x--5--x-----x-----

G|-----------------------------x-----x-----x-----
D|-----7--5--------------------x-----x-----x-----
A|-----------7--5--3--0--3--5--x-----x-----x--5--
E|--5--------------------------x--3--x--5--x-----

G|--------x-----x-----x-----x-----x-----x-----x-----
D|--------x-----x-----x-----x-----x-----x-----x--5-- (x2)
A|-----7--x--5--x--4--x--2--x-----x-----x--5--x-----
E|--0-----x-----x-----x-----x--5--x--3--x-----x-----

G|-----------------
D|-----------------
A|--5-----------3--
E|-----2--3--4-----

G|-----------------------------x-----x-----x-----x-----
D|-----7--5--------------------x-----x-----x-----x-----
A|-----------7--5--3--0--3--5--x-----x-----x--5--x--3--
E|--5--------------------------x--3--x--5--x-----x-----

G|-----------------------------x-----x-----x-----
D|-----7--5--------------------x-----x-----x-----
A|-----------7--5--3--0--3--5--x-----x-----x--5--
E|--5--------------------------x--3--x--5--x-----

G|-----------------------------x-----x-----x-----x-----
D|-----7--5--------------------x-----x-----x-----x-----
A|-----------7--5--3--0--3--5--x-----x-----x--5--x--3--
E|--5--------------------------x--3--x--5--x-----x-----

G|-----------------------------x-----x-----x-----
D|-----7--5--------------------x-----x-----x-----
A|-----------7--5--3--0--3--5--x-----x-----x--5--
E|--5--------------------------x--3--x--5--x-----

G|--------x-----x-----x-----x-----x-----x-----x-----
D|--------x-----x-----x-----x-----x-----x-----x--5--
A|-----7--x--5--x--4--x--2--x-----x-----x--5--x-----
E|--0-----x-----x-----x-----x--5--x--3--x-----x-----

G|-----------------
D|-----------------
A|--5-----------3--
E|-----2--3--4-----

G|-----------------------------------------------------------
D|-----------------------------------5----------------------- (x2)
A|-----------3--------------5-----7-----7--5--3--5-----5-----
E|--5--3--5--------5--3--5--------------------------3-----2--

G|--------------x--------------------  
D|--------------x--------------------
A|--------------x--------------0--2-- (x2)
E|--5--5-----3--x--1--0--1--3--------

G|-----------------------------------------------------------------
D|--------------------------0--2--------------5--------------------
A|--5--5--3--3--1--0--1--3--------5--5--3--3-----5--------0--2-----
E|--------------------------------------------------3--3--------3--

G|-----------------------------------------x-----x--------------------------
D|-----------------------------------------x-----x--------------------------
A|--0--2--3-----------------0--2--3--------x-----x-----0--2--3--------------
E|-----------0--3--3--1--3-----------0--3--x--0--x--3-----------0--3--3--1--

G|-----------------------------------------
D|--------------------------------5-------- (x4)
A|-----------7--7--------------5-----5--7--
E|--0--0--------------0--5--7--------------

G|-----x-----------------x-----------------------------------
D|-----x-----4--2--------x-----4--2-----2--------------------
A|-----x-----------4-----x-----------4-----0--0--1--2-------- (x4)
E|--2--x--2-----------2--x--2--------------------------0--0--

G|-----------------------------------------
D|--------------------------------5-------- (x4)
A|-----------7--7--------------5-----5--7--
E|--0--0--------------0--5--7--------------

G|-----x-----------------x-----------------------------------
D|-----x-----4--2--------x-----4--2-----2--------------------
A|-----x-----------4-----x-----------4-----0--0--1--2-------- (x4)
E|--2--x--2-----------2--x--2--------------------------0--0--

G|-----------------------
D|--------7--5----------- 
A|-----7--------5--------
E|--5--------------3--1--
tabs and chords, guitar tabs, music transcription, music technology, deep learning, music information retrieval, transcribe into tabs & chords, chordify, music renditions, songsterr, reverbnation, tabulature, bollywood chords, ultimate guitar, yousician, guitar lessons, acoustic guitar, electric guitar, guitar tuner, 911 tabs