Guitar Tabs for Carnival Of Rust - Poets Of The Fall Tabs

(/) Slide Up  (\) Slide Down  (h) Hammer On  (p) Pull Off  (b) Bend (r) Release (v) Vibrato

Carnival of Rust - Poets of the Fall - Intro Tabs

[Intro]

    Dm                         F                                Gm
E|--------------0---------0p1--------------------0---------0p1-----------------0---------0p1--------
B|--------3--------3-----------3-----------3--------3-----------3--------3--------3-----------3-----
G|-----2-----2--------2-----------2-----2-----2--------2-----------2--3-----3--------3-----------3--
D|--0--------------------------------3--------------------------------------------------------------
A|--------------------------------------------------------------------------------------------------
E|--------------------------------------------------------------------------------------------------

    Bb                Cadd9
E|-----------------------0-----0-----
B|--------3-----------------3--------
G|--------------------0-----------0--
D|-----3-----3-----------------------
A|--1-----------1--3-----------------
E|-----------------------------------

tabs and chords, guitar tabs, music contests, music covers, songsterr, reverbnation, renditions, tabulature, bollywood chords, ultimate guitar, yousician, guitar lessons, torrins, fender, gibson, acoustic guitar, electric guitar, youtube covers, gootar, guitar tuner, A-Z tabs, 911 tabs