Guitar Tabs for Carmen

(/) Slide Up  (\) Slide Down  (h) Hammer On  (p) Pull Off  (b) Bend (r) Release (v) Vibrato (x) Muted

Tabs for Song : 

Song lyrics here
E|-----------------------------------------------------------------------
B|--------------------3--2--1--1--1--0-----------------------------------
G|--------------------------------------3--2--2--1--0-----------0--------
D|--------3-----------3--------------3-----------3-----3--2--3--3--3--2--
A|-----0-----0-----0-----0--------0-----0-----0-----0-----0--------0-----
D|--0-----------0-----------0--------------0-----------0--------------0--

E|--------------------------------------------------------
B|-----3--2--1--1--1--0-----------------------------------
G|-----0--------------0--3--2--2--0--------------0--------
D|-----------------------------------3--2--0--2--3--2--0--
A|--1-----1--------1-----1-----1-----1--0--0--------0-----
D|-----------0--------------0--------------------------0--

E|--------------------------------------------------------
B|-----------------------------------------------0--------
G|--2-----------2-----------------0--2--2--2--2-----2--0--
D|-----0--2--4-----4--2--0--2--4-----------------4--------
A|--0-----0-----0-----0-----0-----0-----------0-----0-----
D|-----------0-----------0-----------0-----------------2--

E|--------------------------------------------------------
B|--0-----------0--------------------0--0--0--0--2--0-----
G|-----0-----0-----0-----------0--2--------------2-----2--
D|-----2--4-----------4--2--4-----------------------------
A|--2-----2-----2-----2-----2-----2--0--------4-----0-----
D|-----------2-----------2-----------------------------0--

E|--------0--2--------------------------------------------
B|-----3-----------------------------------------3--2-----
G|--2-----------2-----------------0--2--2--2--2--------0--
D|-----4-----------4--2--0--2--4-----------------4--------
A|--0-----0-----0-----0-----0-----0-----------0-----0-----
D|-----------0-----------0-----------0-----------------2--

E|-----0--2--3-----------------------------------2--0--2--0-----
B|--0-----------0--------------------2--0--------------------3--
G|-----0-----------0-----------0--2--0-----1--2-----------------
D|--------------------4--2--4--------2--------------------------
A|--2-----2-----2-----2-----2-----2--0--------------------------
D|-----------2-----------2-----------0--------------------------





E|--
B|--
G|--
D|--
A|--
D|--

E|--
B|--
G|--
D|--
A|--
D|--



Song lyrics here
E|--
B|--
G|--
D|--
A|--
D|--

Paste any tab in acousterr's tab maker and we'll play it !!!
Now supports capo and sound effects for vibrato/pull-off/hammer/bends/mutes etc !!! Checkout help section
tabs and chords, guitar tabs, music transcription, music technology, deep learning, music information retrieval, transcribe into tabs & chords, chordify, music renditions, songsterr, reverbnation, tabulature, bollywood chords, ultimate guitar, yousician, guitar lessons, acoustic guitar, electric guitar, guitar tuner, 911 tabs