Guitar Tabs for Can't Help Fallin' In Love

(/) Slide Up  (\) Slide Down  (h) Hammer On  (p) Pull Off  (b) Bend (r) Release (v) Vibrato

Tabs for Song : 

Song lyrics here
E|-------------------------------------------------------
B|-------------------------------------------------------
G|-------------------------------------------------------
D|-----2-----------0-------------------------0-----------
A|--0-----0--2--4-----=4--2-----------0--2--4-----4--2--0--
E|-------------------------0--2--4-----------------------

Song lyrics here

E|----------------------------------------------------------------------
B|----------------------------------------------------------------------
G|-----------1-------------1--------------1-----------------------------
D|--------2-----4-------2-----4--------2-----4--2--2-----2-----4--------
A|--0--4----------0--4-----------0--4-----------------4-----4-----4--2--
E|----------------------------------------------------------------------

E|--------------------------------------------------------
B|--------------------------------------------------------
G|--------------------------------------------------------
D|-----2-----------0--------------------------0-----------
A|--0-----0--2--4-----4--2-----------0--2--4-----4--2--0--
E|--------------------------0--2--4-----------------------

Add more lines by placing cursor below and adding notes


E|--------------------------------------------
B|--------------------------------------------
G|-----------------------------------2--1-----
D|-----2--0-----------------0--------------4--
A|--0--------4--2--0--2--4-----4--2-----------
E|--------------------------------------------

tabs and chords, guitar tabs, music transcription, music technology, deep learning, music information retrieval, transcribe into tabs & chords, chordify, music renditions, songsterr, reverbnation, tabulature, bollywood chords, ultimate guitar, yousician, guitar lessons, acoustic guitar, electric guitar, guitar tuner, 911 tabs