Ukulele Tabs for Canon In D

(/) Slide Up  (\) Slide Down  (h) Hammer On  (p) Pull Off  (b) Bend (r) Release (v) Vibrato (x) Muted

Tabs for Song : 

Song lyrics here
A|--7-----3--7--5-----2--5--3-----0--3--2--------2--0--------0--------------0--------0--2--------2--
E|-----------------------------0-----------0--3-----------1-----3-----0--3--------1-----------3-----
C|-----------------------------------------------------0-----------0-----------0-----------2--------
G|-----0-----------0--------------------------------------------------------------------------------

A|--3--2--3--2-----0--2--3--5--7--8--7--5--8--7--5--3--2--0--------0-----0--2--3--5--7--8--10-7--8--
E|--------------3--------------------------------------------3--1-----3-----------------------------
C|--------------------------------------------------------------------------------------------------
G|--------------------------------------------------------------------------------------------------

A|--10-7--8--10----0--2--3--5--7--8--7--3--5--7-----------0--------------3--2--0--0-----------------
E|--------------3--------------------------------0--1--3-----3--1--3--0--------------3--1--0-----0--
C|--------------------------------------------------------------------------------------------2-----
G|--------------------------------------------------------------------------------------------------

A|--------------------0-----0-----0--0-----0--2--3--5--7--8--10-10-10-10-12-10-8--7--7--7--8--7--5--3--
E|-----------0--1--3-----1-----3--------3--------------------------------------------------------------
C|--2--0--2--------------------------------------------------------------------------------------------
G|-----------------------------------------------------------------------------------------------------

Song lyrics here
A|--
E|--
C|--
G|--

Paste any tab in acousterr's tab maker and we'll play it !!!
Now supports capo and sound effects for vibrato/pull-off/hammer/bends/mutes etc !!! Checkout help section
tabs and chords, guitar tabs, music transcription, music technology, deep learning, music information retrieval, transcribe into tabs & chords, chordify, music renditions, songsterr, reverbnation, tabulature, bollywood chords, ultimate guitar, yousician, guitar lessons, acoustic guitar, electric guitar, guitar tuner, 911 tabs