Guitar Tabs for Canon In D

(/) Slide Up  (\) Slide Down  (h) Hammer On  (p) Pull Off  (b) Bend (r) Release (v) Vibrato (x) Muted

Tabs for Song : 

E|--2--------------0-----------------------------------------------------------------------------------------------------
B|--------------------------------3--------------2--------------0-----------------------------0--------------2-----------
G|-----------------------------------------------------------------------------2-----------------------------------------
D|-----------------------------------------------------------------------------------------------------------------------
A|-----------------------------------------------------------------------------------------------------------------------
E|-----------------------------------------------------------------------------------------------------------------------

E|--2--------------0-----------------------------------------------------------------------------------------------------
B|--------------------------------3--------------2--------------0-----------------------------0--------------2-----------
G|-----------------------------------------------------------------------------2-----------------------------------------
D|-----------------------------------------------------------------------------------------------------------------------
A|-----------------------------------------------------------------------------------------------------------------------
E|-----------------------------------------------------------------------------------------------------------------------

E|-----------------------------------------2--5--7--3--2--0--3--2--0--------------------------------
B|--3--2--3-----------------3--3--2--0--2-----------------------------3--2--0-----0--3--3-----2-----
G|-----------------2--0--2-----------------------------------------------------2--------------------
D|-----------4--2-----------------------------------------------------------------------------------
A|--------------------------------------------------------------------------------------------------
E|--------------------------------------------------------------------------------------------------

E|--5--2--3--5--2--3--5--------------0--2--3--2-----0--2--------------------------------
B|--------------------------0--2--3--------------3-----------------0--------------------
G|-----------------------2-----------------------------------0--2-----2--0--2-----0--2--
D|--------------------------------------------------------4--------------------4--------
A|--------------------------------------------------------------------------------------
E|--------------------------------------------------------------------------------------

E|--------------------------------------------------------------------------------0--2--
B|-----0-----------------------------------0-----0-----0--2--3--2--0-----0--2--3--------
G|--0-----2--0-----------------------0--2-----0-----2-----------------2-----------------
D|--------------4--2--4--2--0--2--4-----------------------------------------------------
A|--------------------------------------------------------------------------------------
E|--------------------------------------------------------------------------------------

E|--5--2--3--5--2--3--5--------------0--2--3--2-----0--2--------------------------------
B|--------------------------0--2--3--------------3-----------------0-----------3--2--3--
G|-----------------------2-----------------------------------0--2-----2--0--2-----------
D|--------------------------------------------------------4-----------------------------
A|--------------------------------------------------------------------------------------
E|--------------------------------------------------------------------------------------

E|--------------------------------------------------------------------0-----------------
B|--0--3--2--0-----------------------0--2--3--0--3--2--3--2--0--2--3-----3--2--3--0--2--
G|--------------2--0--2--0-----0--2-----------------------------------------------------
D|--------------------------4-----------------------------------------------------------
A|--------------------------------------------------------------------------------------
E|--------------------------------------------------------------------------------------

E|--5-----2--5--5--7--5--3--2--------2--2--3--2--0--------------------------------------------
B|--------------------------------3-----------------3-----0--3--3-----3--3--1--0--2--2--------
G|--------------------------------------------------------------------------------------------
D|--------------------------------------------------------------------------------------------
A|--------------------------------------------------------------------------------------------
E|--------------------------------------------------------------------------------------------

E|--5-----2--5--5--7--5--3--2--------3--2--3--2--0--------------------------------------------0-----
B|--------------------------------3-----------------3-----0--3--3-----3--3--1--0--1--2-----3--------
G|--------------------------------------------------------------------------------------------------
D|--------------------------------------------------------------------------------------------------
A|--------------------------------------------------------------------------------------------------
E|--------------------------------------------------------------------------------------------------


E|--2--------2--2--3--2--0-----------------0--------------3-----2-----5-----7-----3-----5-----------2--
B|--------3-----------------3-----0--3--3-----3--2--0--------------------------------------------2-----
G|--------------------------------------------------------------------------------------------2--------
D|-----------------------------------------------------------------------------------------------------
A|-----------------------------------------------------------------------------------------------------
E|-----------------------------------------------------------------------------------------------------

Paste any tab in acousterr's tab maker and we'll play it !!!
Now supports capo and sound effects for vibrato/pull-off/hammer/bends/mutes etc !!! Checkout help section
tabs and chords, guitar tabs, music transcription, music technology, deep learning, music information retrieval, transcribe into tabs & chords, chordify, music renditions, songsterr, reverbnation, tabulature, bollywood chords, ultimate guitar, yousician, guitar lessons, acoustic guitar, electric guitar, guitar tuner, 911 tabs