Canon In D - Guitar Tabs

(/) Slide Up  (\) Slide Down  (h) Hammer On  (p) Pull Off  (b) Bend (r) Release (v) Vibrato (x) Muted

Tabs for Song : Canon in D

E|--2--0-----------------------0-|----0h2--------2--0--------------------------------------------------------------
B|--------3--2--0-----0--2--3----|------------3--------------2--3--------3--2--------2--0--------0-----------3-----
G|-----------------2-------------|---------2--------------2-----------4-----------2-----------0-----2-----2--------
D|--0--------------0-------------|----0----------------2-----------4-----------4-----------0--------0--0-----------
A|-----0--2--------------0-------|------------------0-----------2--------------------------------------------------
E|-----------2--3-----3----------|------------------------------------------2-----------3--------------------------

E|-----------------------0---0h2--------0--3--2--0--------0--------2--5-|---3--2--0--3-----------------------2--2--0--
B|--0--------0--2-----3--------------3--2-----------3--------3--2-------|------------------3--2--0---2----3--3--3--2--
G|--------0-----------------------2-----2--------------4----------------|---------------------------------2--------2--
D|-----0-----------2---------0----------2-------------------------------|---------------0-----------------0--------2--
A|--------------0-----------------------0-----------2-------------------|------------------------------------------0--
E|--3-----------------------------------------------------------2-------|---3--------------------3--------------------

E|--------------7-----------5--------7--------9--7---5/10-10|---------------------------------------------------------
B|-----3--3--2--------0--2--3--2--3--8--8-----10------------|---0--3--2--0--------------------------2--3--0--3--2--3--
G|-----4--4--2-----0-----------------------7----------------|---------------2--0--2--0-----0--2--4--------------------
D|-----4--4--4--------------0--------0--------------------0-|---------------------0-----4-----------------------------
A|--2--------4--5-----------------------------0-------------|---------------------------------------------------------
E|-----------2----------------------------------------------|---3-----------------------------------------3-----------


E|--------------0-----0--2--3--5-|---5--2--3--5--2--3--5-----------------2--3--2--------2--------------------------------
B|--2--0--2--3-----3-------------|------------------------------2--3--5-----------3--5--------------0--------------------
G|-------------------------------|------------------------2--4--------------------------------0--2-----2--0--2-----0--2--
D|-------------------------------|---0-----------------------------------------------------4--------------------4--------
A|--------0----------------------|---------------------0-----------------------2-----------------------------------------
E|-------------------------------|---------------------------------------------------------------2-----------------------

E|--------------------------------------------------------------------------0--2--3--5-|
B|-----0-----------------------------------0-----0-----0-----0-----0--2--3-----------2-|
G|--0-----2--0-----------------------0--2-----0-----2-----2-----2--------------------2-|
D|--------------4--2--4--2--0--2--4--------------------------------------------------2-|
A|--------------------0-----------------------------------------0--------------------0-|
E|--3-----------------------------------------3----------------------------------------|

E|---------2/5--5--3--2-----2--0-----------5--3------5/7--5--3-------------------------|---------------5--2---5/7--3--2--
B|--3--------------------3--------3--0--3-----------------------3--2--3--0--2----------|---------3-----------------------
G|--2--2--------------------------------2--------0--------------2-----------------2--0-|------4-----4--------------------
D|--0-----------------------------------0-----------------------0--------------2-------|---4-----------------------------
A|--------------0-----2-----------------------------------0-----------------0----------|---2-----------------------------
E|--------------------------2-----3-----------3----------------------------------------|---------------2-----------3-----

E|--0--3--2--0--------------------------0----|------------5--5--7--5--3--2--------2--2--3--2-----------------------------
B|--------------3--2--0-----0--3--2--3-----2-|---3-----3--7--7--8--7--5--------3--------------5--3--2--0--2--3--------3--
G|--------------------0--2--------2----------|---2--2-----------------------4--------------------------------------2-----
D|--------0----------------------------------|---0--------------------------------------------------------------0--------
A|--------------------------------0----------|---------------0-----------2-----------------------------------0-----------
E|--------------------3----------------------|---------------------------------------2-----------3-----------------------

E|-----------2-|------------------------------------------------------------------------0-----
B|--3-----3----|---------3--2--0---0h2------------2/3--3--------------------------------3--15-
G|-----2-------|---------0--------------2-----2-----------2--0--------------------------2-----
D|--0----------|---------------------------2-----------0--------4---2h-4p-2p0------0h2--0-----
A|-------------|------------------------0--------------------------------------4--------0-----
E|-------------|---------3--------------------------------------------------------------------

E|--
B|--
G|--
D|--
A|--
E|--

E|--
B|--
G|--
D|--
A|--
E|--

|


-




Use manual mode to free up cursor. Paste any tab in acousterr tab maker and we'll play it !!!

About Pachelbel's Canon - Johann Pachelbel's Canon is an accompanied canon by 3 violins and basso continuo . Neither the date nor circumstances of composition are known . The oldest surviving manuscript copy of the piece dates from 19th century . Pachelbel's Canon, although popular during his lifetime, went out of style, and remained in obscurity for centuries . A 1968 arrangement and recording of it by the Jean-Fran├žois Paillard chamber orchestra gained popularity . By the early 1980s its presence as background music was deemed inescapable . The canon was originally scored for three violins and basso continuo and paired with a gigue . Both movements are in the key of D major . Although a true canon at the unison in Pachelbel's Canon had an affiliation to band(s) - Pachelbel's Canon.

tabs and chords, guitar tabs, music transcription, music technology, deep learning, music information retrieval, transcribe into tabs & chords, chordify, music renditions, songsterr, reverbnation, tabulature, bollywood chords, ultimate guitar, yousician, guitar lessons, acoustic guitar, electric guitar, guitar tuner, 911 tabs