Bass Tabs for Canalize City (day)

(/) Slide Up  (\) Slide Down  (h) Hammer On  (p) Pull Off  (b) Bend (r) Release (v) Vibrato (x) Muted

Tabs for Song : 

Song lyrics here
G|-----------2--4--6-----4-----2--------4--6-----4-----2--------4--6-----4-----6-----6--------6-----1--3-----4--
D|--------2-----------------2-----------------------2-----------------------2-----6--------2-----0--------4-----
A|-----0--------------0--------------0--------0--------------0--------0-----------------6-----------------------
E|--0-----------------------------0-----------------------0-----------------------------------------------------

G|--6--7--4--6-----4-----4--6--7--4--6--------------------------2-----------4--6-----4-----4-----4--6--7--4--6--
D|--------------4-----4-----------------4--0-----0--2--3--0--2--------------------------2-----4-----------------
A|--------------------------------------------0--------------------0-----0--------0-----------------------------
E|--------------------------------------------------------------------0-----------------------------------------

G|--------4--------2-----1--4--2-----2--4--6-----4-----6-----6--------6--7-----3-----4--6--7--4--6-----4-----4--
D|--4--2-----2--4-----2-----------2-----------------2-----6-----------------6-----4-----------------4-----4-----
A|--------------------------------------------0-----------------6-----------------------------------------------
E|-----------------------------------------------------------------0--------------------------------------------

G|--6--7--4--6--------------------------2--------2--4--------4-----4-----4--6--7--4--6--------4-----------------
D|--------------4--0-----0--2--3--0--2--------2--------0--------2-----4-----------------4--2-----2--4--6--2--4--
A|--------------------0--------------------0--------------0-----------------------------------------------------
E|--------------------------------------------------------------------------------------------------------------

G|--4-----5-----0--2-----------5-----5--7-----5--7--------5--------2--------5--5-----5--7-----5--7-----5-----5--
D|-----3-----3--------3--5--2-----5--------2--------5--3-----3--5-----3--5--------5--------3--------5-----5-----
A|--------------------------------------------------------------------------------------------------------------
E|--------------------------------------------------------------------------------------------------------------

G|--------5--------5-----5--------5-----------5-----2-----------4--2-----2--4--5--2--4-----2--------4--5--2--4--
D|--0--2-----0--5-----5-----0--2-----0--5--3-----3-----5--0--5--------2-----------------2-----------------------
A|-----------------------------------------------------------------------------------------------0--------------
E|--------------------------------------------------------------------------------------------0-----------------

G|-----2--------4--6--2--4-----2--------4--6--2--4-----2--------4--6--2--4-----2--------4--6--2--4-----6-----6--
D|--2-----------------------2-----------------------2-----------------------2-----------------------2-----6-----
A|-----------0-----------------------0-----------------------0-----------------------0--------------------------
E|--------0-----------------------0-----------------------0-----------------------0-----------------------------

G|--------6-----6-----3-----4--6--7--2--4-----4-----4--6--7-----4-----7-----7--------------2--------2--4--6--2--4--
D|--1--2-----6-----6-----4-----------------4-----4-----------4-----4-----------2--3--0--2--------2-----------------
A|-----------------------------------------------------------------------0--------------------0--------------------
E|-----------------------------------------------------------------------------------------------------------------

G|-----4-----4--6--7--4--6--------4--------2--------4--2--------4--6--2--4-----6-----6--------6--------3-----4--
D|--2-----4-----------------4--2-----2--4-----2--6--------------------------2-----6-----1--2-----1--6-----4-----
A|-----------------------------------------------------------0--------------------------------------------------
E|--------------------------------------------------------0-----------------------------------------------------

G|--6--7--4--6-----4-----4--6--7--4--6-----------------------------------2--4-----2--4-----4-----4--6--7--4--6--
D|--------------4-----4-----------------4--0-----0--2--3--0--2--2-----2--------0--------2-----4-----------------
A|--------------------------------------------0--------------------0--------------------------------------------
E|--------------------------------------------------------------------------------------------------------------

G|--------4-----------------4-----5--------------------5-----5--------5--7--------5--------2--------5-----------
D|--4--2-----2--4--6--2--4-----3-----3--5-----3--5--2-----5-----0--2--------5--3-----3--5-----3--5--------5-----
A|-----------------------------------------0-----------------------------------------------------------3-----3--
E|--------------------------------------------------------------------------------------------------------------

G|-----------------5-----------------------5--------------------0-----------2--------0--4--2--------4--5--2--4--
D|--0--3-----0--5-----------0--2-----0--5-----------0--2-----0-----3-----3-----5--0-----------2-----------------
A|--------3--------------3--------3--------------3--------3-----------3--------------------------0--------------
E|--------------------3-----------------------3-----------------------------------------------------------------

G|-----2--------4--5--2--4-----2--------4--6--2--4-----2--------4--6--2--4-----
D|--2-----------------------2-----------------------2--------------------------
A|-----------0-----------------------0-----------------------0-----------------
E|--------0-----------------------0-----------------------0-----------------0--

Song lyrics here
G|--
D|--
A|--
E|--

Paste any tab in acousterr's tab maker and we'll play it !!!
Now supports capo and sound effects for vibrato/pull-off/hammer/bends/mutes etc !!! Checkout help section
tabs and chords, guitar tabs, music transcription, music technology, deep learning, music information retrieval, transcribe into tabs & chords, chordify, music renditions, songsterr, reverbnation, tabulature, bollywood chords, ultimate guitar, yousician, guitar lessons, acoustic guitar, electric guitar, guitar tuner, 911 tabs