Guitar Tabs for C418 - Sweden

(/) Slide Up  (\) Slide Down  (h) Hammer On  (p) Pull Off  (b) Bend (r) Release (v) Vibrato (x) Muted

Tabs for Song : 
BPM : 200

Song lyrics here 
E|-----------------------------------------------------------------------------------------
B|--------------------------3--------------------------------------------------------------
G|--0-----------------------2-----------------------2------------------------6-------------
D|--0-----------------------------------------------4------------------------7-------------
A|--------------------------------------2-----------0------------------------0-------------
E|--0-----------2-----------3-------------------------------------3------------------------

E|----------------------------2-------------------------------------------------------------
B|--0-------------------------3-----------------------2---------------------5---------------
G|--0-------------------------2-----------------------2---------------------6---------------
D|--0-------------------------------------------------4---------------------7---------------
A|---------------------------------------2------------0---------------------0---------------
E|--0-----------2-------------3-----------------------------------3-------------------------



E|----------------5---7------2--------------------0--------------------2---5---------------
B|--0------------------------3----------------3-------2---------------------5--------------
G|--0------------------------2------------------------2---------------------6--------------
D|--0-------------------------------------------------4---------------------7--------------
A|----------------------------------------2-----------0---------------------0--------------
E|--0-------------3----------3----------------------------------3--------------------------

E|---------------------------2--------------------0-------------------2---5----------------
B|--0-----------12h----------3----------------3-------2-----------------------5------------
G|--0-------7h---------------2------------------------2-----------------------6------------
D|--0-----------------7h------------------------------4-----------------------7------------
A|----------------------------------------2-----------0-----------------------0------------
E|--0------------------------3------------------------------------3------------------------
5
E|---------------5------7---10---------------12h----9-----------10----9-----5-----------
B|--0-----------------------7----------7h-----------10----------------------5-----------
G|--0-----------------------7-----------------------------------------------6-----------
D|--0-----------------------7-----------------------------------------------7-----------
A|--------------------------------------------------------------------------------------
E|--0------------3----------------------------------10----------------------------------

E|---------------7-----5-----2-------------------0---------------------5---2------------
B|--0------------------------3----------------3-----2------------------------5----------
G|--0------------------------2----------------------2------------------------6----------
D|--0-----------------------------------------------4------------------------7----------
A|----------------------------------------2---------0------------------------0----------
E|--0------------3-----------3-----------------------------------3----------------------

E|---------------5------7---10-----------------------------9-----------------2---5---------
B|--0-----------------------7-----------------------------10---------7h------------5-------
G|--0-----------------------7--------------7-----9---------------------------------6-------
D|--0-----------------------7------------------------------------------------------7-------
A|---------------------------------------------------------------------------------0-------
E|--0------------3------------------7---------------------10-------------------------------

E|--2---------7------5------0------0--------------------0----------------
B|--2-----------------------0--------3-------2------3--------0-----------
G|--2-----------------------1----------------2---------------0-----------
D|-------------------------------------------2---------------0-----------
A|-------------------------------------------0---------------------------
E|--2--------------------------------------------------------3-----------

E|--2---------7------5------0------12h----------------9---------10---14---12---7-
B|--2-----------------------0--------------------------10----------------------0-
G|--2-----------------------1--------------7h----------------------------------0-
D|-----------------------------------------------------------------------------0-
A|-------------------------------------------------------------------------------
E|--2--------------------------------------------------10------------------------




Use manual mode to free up cursor. Paste any tab in acousterr tab maker and we'll play it !!!
tabs and chords, guitar tabs, music transcription, music technology, deep learning, music information retrieval, transcribe into tabs & chords, chordify, music renditions, songsterr, reverbnation, tabulature, bollywood chords, ultimate guitar, yousician, guitar lessons, acoustic guitar, electric guitar, guitar tuner, 911 tabs