Guitar Tabs for Good On Dance Floor

Bet you look good on dancefloor:

CHORUS:

e|-------------------------------------------------------------------------------------------------|
B|-------------------------------------------------------------------------------------------------|
G|-------------------------------------------------------------------------------------------------|
D|--4--4--4--4--4--4--4--4--4--4--4--4--4--4--4---4/7--7--7--7--7--7--7--7--7--7--7--7--7--7--7---7|
A|--4--4--4--4--4--4--4--4--4--4--4--4--4--4--4---4/7--7--7--7--7--7--7--7--7--7--7--7--7--7--7---7|
E|--2--2--2--2--2--2--2--2--2--2--2--2--2--2--2---2/5--5--5--5--5--5--5--5--5--5--5--5--5--5--5---5|
                                                 
E|--------------------------------------------------------------------------------------------------
B|--------------------------------------------------------------------------------------------------
G|--------------------------------------------------------------------------------------------------
D|--2--2--2--2--2--2--2--2--2--2--2--2--2--2--2--2--4--4--4--4--4--4--4--4--4--4--4--4--4--4--4--4--
A|--2--2--2--2--2--2--2--2--2--2--2--2--2--2--2--2--4--4--4--4--4--4--4--4--4--4--4--4--4--4--4--4--
E|--0--0--0--0--0--0--0--0--0--0--0--0--0--0--0--0--2--2--2--2--2--2--2--2--2--2--2--2--2--2--2--2--

bridge: 
   x8     x8    x16
E|-----------------------2x
B|-----------------------
G|--------9--------------
D|--7-----9-----2--------
A|--7-----7-----2--------
E|--5-----------0--------


tabs and chords, guitar tabs, music transcription, music technology, deep learning, music information retrieval, transcribe into tabs & chords, chordify, music renditions, songsterr, reverbnation, tabulature, bollywood chords, ultimate guitar, yousician, guitar lessons, acoustic guitar, electric guitar, guitar tuner, 911 tabs