Guitar Tabs for G Major Swing Strumming

(/) Slide Up  (\) Slide Down  (h) Hammer On  (p) Pull Off  (b) Bend (r) Release (v) Vibrato (x) Muted

Tabs for Song : 

Song lyrics here
E|-----------3-----3--------3--3-----0-----------2-----2--------2--2-----0--
B|-----------0-----3--------3--3-----0-----------3-----3--------3--3-----0--
G|-----------0-----4--------4--4-----0--2--------2-----2--------2--2-----0--
D|--0--------0-----5--------5--5-----0--0--------0-----0--------0--0-----0--
A|--2--------2-----5--------5--5-----0--0--------------------------------0--
E|--3--------3-----3--------3--3--------------------------------------------

E|-----------0-----0--------0--0-----0-----------0-----0--------0--0-----0--
B|-----------1-----1--------1--1-----1-----------1-----1--------1--1-----0--
G|--2--------2-----2--------2--2-----2--2--------2-----2--------2--2-----0--
D|--2--------2-----2--------2--2-----2--2--------2-----2--------2--2-----0--
A|--0--------0-----0--------0--0-----0--0--------0-----0--------0--0-----0--
E|--------------------------------------------------------------------------

Song lyrics here
E|-----------3-----3--------3--3-----0-----------2-----2--------2--2-----0--
B|-----------3-----3--------3--3-----0-----------3-----3--------3--3-----0--
G|-----------4-----4--------4--4-----0--2--------2-----2--------2--2-----0--
D|--0--------5-----5--------5--5-----0--0--------0-----0--------0--0-----0--
A|--2--------5-----5--------5--5-----0--0--------------------------------0--
E|--3--------3-----3--------3--3--------------------------------------------

E|-----------0-----0--------0--0-----0-----------0-----0--------0--0-----0--
B|-----------1-----1--------1--1-----0-----------1-----1--------1--1-----0--
G|--2--------2-----2--------2--2-----0--0--------0-----0--------0--0-----0--
D|--2--------2-----2--------2--2-----0--2--------2-----2--------2--2-----0--
A|--0--------0-----0--------0--0-----0--3--------3-----3--------3--3-----0--
E|--------------------------------------------------------------------------

Paste any tab in acousterr's tab maker and we'll play it !!!
Now supports capo and sound effects for vibrato/pull-off/hammer/bends/mutes etc !!! Checkout help section
tabs and chords, guitar tabs, music transcription, music technology, deep learning, music information retrieval, transcribe into tabs & chords, chordify, music renditions, songsterr, reverbnation, tabulature, bollywood chords, ultimate guitar, yousician, guitar lessons, acoustic guitar, electric guitar, guitar tuner, 911 tabs