Bwv 997 1 Prelude - Johann Sebastian Bach - Guitar Tabs

Guitar
    
                                                                                                                                                                                                                                                                                                                                                                                                                                                                                                                                                                                                                                                                                                                                                                                                                                                                                                                                                                                                                                                                                                                                                                                              
E|--------------0--4--5-----5-|------------0--4--5-----5-|
B|--------0--1----------------|-------0p1----------------|
G|-----2----------------------|---2----------------------|
D|----------------------------|--------------------------|
A|----------------------------|--------------------------|
E|----------------------------|--------------------------|

    
                                                                                                                                                                                                                                                                                                                                                                                                                                                                                                                                                                                                                                                                                                                                                                                                                                                                                                                                                                                                                                                                                                                                                                                              
E|--------------0--4--5-----5-|---3--1--0-------------------------------|
B|---------0p1----------------|------------3--1--0-----------0--------3-|
G|-----2----------------------|---------------------2--1--2-------------|
D|----------------------------|---------------------------------3--2----|
A|----------------------------|-----------------------------------------|
E|----------------------------|-----------------------------------------|

    
                                                                                                                                                                                                                                                                                                                                                                                                                                                                                                                                                                                                                                                                                                                                                                                                                                                                                                                                                                                                                                                                                                                                                                                              
E|--------------------------0--------1--0-------|---1--------------------1--0-----3--1--0----|
B|--1--0--------------0--1-----3--1--------3--1-|3--------------0--1--3--------3-----------3-|
G|--------2-----1--2----------------------------|------0-----2-------------------------------|
D|----------------------------------------------|--------------------------------------------|
A|----------------------------------------------|--------------------------------------------|
E|----------------------------------------------|--------------------------------------------|

    
                                                                                                                                                                                                                                                                                                                                                                                                                                                                                                                                                                                                                                                                                                                                                                                                                                                                                                                                                                                                                                                                                                                                                                                              
E|--0-----0--3-----------3-----------3-----------1-|0-----0-----0-----0--------------1-----0-------|
B|-----3--------0-----0-----1--0--1-----3--1--3----|---3-----1-----0-----------------------------3-|
G|-----------------2-------------------------------|---------------------2--1-----1-----1-----1----|
D|-------------------------------------------------|---------------------------4-------------------|
A|-------------------------------------------------|-----------------------------------------------|
E|-------------------------------------------------|-----------------------------------------------|

    
                                                                                                                                                                                                                                                                                                                                                                                                                                                                                                                                                                                                                                                                                                                                                                                                                                                                                                                                                                                                                                                                                                                                                                                              
E|-----------0--5--8-----0--------0--2--3-|5-----------------0--2-------------------|
B|--1--0--1-----------------4-------------|------0-----2--4-----------------1--0----|
G|----------------------------------------|---5--------------------1--2-----------2-|
D|----------------------------------------|-----------------------------------------|
A|----------------------------------------|-----------------------------------------|
E|----------------------------------------|-----------------------------------------|

    
                                                                                                                                                                                                                                                                                                                                                                                                                                                                                                                                                                                                                                                                                                                                                                                                                                                                                                                                                                                                                                                                                                                                                                                              
E|--------0-----0-----------------2--0--2----------|---0--3--2--3--------------2--5-------------|
B|-----0-----4-----0--1-----0--4-----------0--1----|0--------------0--1-----0-----------1--0----|
G|--0--------------------3-----------------------3-|---------------------3--------------------3-|
D|-------------------------------------------------|--------------------------------------------|
A|-------------------------------------------------|--------------------------------------------|
E|-------------------------------------------------|--------------------------------------------|

    
                                                                                                                                                                                                                                                                                                                                                                                                                                                                                                                                                                                                                                                                                                                                                                                                                                                                                                                                                                                                                                                                                                                                                                                              
E|--------0--2--3--2--0-------------------|---------------------------------8--7--5-|
B|-----0--------------------------0--1--3-|1-----------------0----------------------|
G|--0--------------------2--1-------------|------------0--2-----2-------------------|
D|----------------------------------------|---3--2-----------------2--1-------------|
A|----------------------------------------|-----------------------------------------|
E|----------------------------------------|-----------------------------------------|

    
                                                                                                                                                                                                                                                                                                                                                                                                                                                                                                                                                                                                                                                                                                                                                                                                                                                                                                                                                                                                                                                                                                                                                                                              
E|--3--5--7--0--3--2--0-----0--3----------------|---------0--2--------0-------|
B|-----------------------4--------------2--0----|0--2--4--------------------4-|
G|--------------------------------3--0--------3-|---------------2--0----------|
D|----------------------------------------------|------------------------4----|
A|----------------------------------------------|-----------------------------|
E|----------------------------------------------|-----------------------------|

    
                                                                                                                                                                                                                                                                                                                                                                                                                                                                                                                                                                                                                                                                                                                                                                                                                                                                                                                                                                                                                                                                                                                                                                                              
E|--------------------0-----0-|------------------0-----0-|
B|--------------0--4----------|------------0--4----------|
G|-----------0----------------|---------0----------------|
D|------2p4-------------------|----2p4-------------------|
A|----------------------------|--------------------------|
E|----------------------------|--------------------------|

    
                                                                                                                                                                                                                                                                                                                                                                                                                                                                                                                                                                                                                                                                                                                                                                                                                                                                                                                                                                                                                                                                                                                                                                                              
E|--------------------0-----0-|-----------------------------------------|
B|--------------0--4----------|---3--1--0-------------------------------|
G|-----------0----------------|------------2--0-----------------------2-|
D|------2p4-------------------|------------------4--2--1--2--4----------|
A|----------------------------|---------------------------------3--2----|
E|----------------------------|-----------------------------------------|

    
                                                                                                                                                                                                                                                                                                                                                                                                                                                                                                                                                                                                                                                                                                                                                                                                                                                                                                                                                                                                                                                                                                                                                                                              
E|----------------------------------------------|---------------------------1--0-----0----------|
B|-----------------------------0-----1--0-------|---1--0-----------0--1--3--------3-----3--1--0-|
G|--0--------------------0--2-----0--------2--0-|2--------2--1--2-------------------------------|
D|-----4--2-----1--2--4-------------------------|-----------------------------------------------|
A|----------------------------------------------|-----------------------------------------------|
E|----------------------------------------------|-----------------------------------------------|

    
                                                                                                                                                                                                                                                                                                                                                                                                                                                                                                                                                                                                                                                                                                                                                                                                                                                                                                                                                                                                                                                                                                                                                                                              
E|--------------------------0--------1--0-------|---1--0-----------0--1--3--6--5--3--5--3--1--0-|
B|--1--0--------------0--1-----3--1--------3--1-|3--------3--2--3-------------------------------|
G|--------2-----1--2----------------------------|-----------------------------------------------|
D|----------------------------------------------|-----------------------------------------------|
A|----------------------------------------------|-----------------------------------------------|
E|----------------------------------------------|-----------------------------------------------|

    
                                                                                                                                                                                                                                                                                                                                                                                                                                                                                                                                                                                                                                                                                                                                                                                                                                                                                                                                                                                                                                                                                                                                                                                              
E|--1--0--1--5-----------5-----------5--0-----0--3-|1--0-----0--1-----1--------------5-----3-----1-|
B|--------------2--0--2-----3--2--3--------3-------|------3--------3-----1-------------------------|
G|-------------------------------------------------|------------------------3--2--3-----3-----3----|
D|-------------------------------------------------|-----------------------------------------------|
A|-------------------------------------------------|-----------------------------------------------|
E|-------------------------------------------------|-----------------------------------------------|

    
                                                                                                                                                                                                                                                                                                                                                                                                                                                                                                                                                                                                                                                                                                                                                                                                                                                                                                                                                                                                                                                                                                                                                                                              
E|--0-----------0-----0--------------3-----1-----0-|---------------------------------1-----0-------|
B|-----3--1--3-----1-------------------------------|3--1-----1--3-----3--------------------------3-|
G|-----------------------3--2--0--2-----2-----2----|------3--------3-----2--0-----0-----0-----0----|
D|-------------------------------------------------|---------------------------3-------------------|
A|-------------------------------------------------|-----------------------------------------------|
E|-------------------------------------------------|-----------------------------------------------|

    
                                                                                                                                                                                                                                                                                                                                                                                                                                                                                                                                                                                                                                                                                                                                                                                                                                                                                                                                                                                                                                                                                                                                                                                              
E|-----------------------------------0----------|------------------------------------0----------|
B|--2--0----------------------------------------|------------3----------------------------------|
G|--------2-----------0-----3--2--0-----0-------|---2--0--------------------3--2--0-----0-------|
D|--------------2--3-----------------------3--2-|3--------3-----3--2--0--------------------3--2-|
A|-----------------------4----------------------|------------------------4----------------------|
E|----------------------------------------------|-----------------------------------------------|

    
                                                                                                                                                                                                                                                                                                                                                                                                                                                                                                                                                                                                                                                                                                                                                                                                                                                                                                                                                                                                                                                                                                                                                                                              
E|-------------------------------------------------|------------------------------3--1--0----|
B|--------------3----------------------------------|---------------4--3--2--3--------------3-|
G|-----2--0--------------------------------1--0----|0--1--0-----0--------------2-------------|
D|--3--------3-----3--2--0--1--3--1--0--1--------4-|---------4-------------------------------|
A|-------------------------------------------------|-----------------------------------------|
E|-------------------------------------------------|-----------------------------------------|

    
                                                                                                                                                                                                                                                                                                                                                                                                                                                                                                                                                                                                                                                                                                                                                                                                                                                                                                                                                                                                                                                                                                                                                                                              
E|-----1--------------0--1--5--6-|---0-----------------0--4--5-|
B|--3-----3----------------------|------1-----------4----------|
G|-----------2--3----------------|---------1--2----------------|
D|-------------------------------|-----------------------------|
A|-------------------------------|-----------------------------|
E|-------------------------------|-----------------------------|

    
                                                                                                                                                                                                                                                                                                                                                                                                                                                                                                                                                                                                                                                                                                                                                                                                                                                                                                                                                                                                                                                                                                                                                                                              
E|-----3--1--0-------------------------------------|---------0-----------0-----------0-------------|
B|--------------3--1--0-----------0--------3--1--0-|1--0--1-----------------------------0-----0--3-|
G|-----------------------2--1--2-------------------|------------1-----1-----2--1--2--------2-------|
D|-----------------------------------3--2----------|---------------4-------------------------------|
A|-------------------------------------------------|-----------------------------------------------|
E|-------------------------------------------------|-----------------------------------------------|

    
                                                                                                                                                                                                                                                                                                                                                                                                                                                                                                                                                                                                                                                                                                                                                                                                                                                                                                                                                                                                                                                                                                                                                                                              
E|-----------------------------------0-------------|-----------------------------------------------|
B|--1--0-----0--1-----1--------------------3-----1-|0-----------0-----0--------------3-----1-----0-|
G|--------2--------2-----0-------------------------|---2-----2-----0-------------------------------|
D|--------------------------3--2--3-----3-----3----|---------------------3--2--0--2-----2-----2----|
A|-------------------------------------------------|-----------------------------------------------|
E|-------------------------------------------------|-----------------------------------------------|

    
                                                                                                                                                                                                                                                                                                                                                                                                                                                                                                                                                                                                                                                                                                                                                                                                                                                                                                                                                                                                                                                                                                                                                                                              
E|-------------------------------------------|---1--0-----7-----0--------1--0-----7-----0----|
B|--------------------------1-----0----------|---------3-----6-----3-----------3-----6-----3-|
G|--2--0-----0--2-----------------------2----|1-----------------------1----------------------|
D|--------3--------2--1--------1-----1-------|-----------------------------------------------|
A|-------------------------------------------|-----------------------------------------------|
E|-------------------------------------------|-----------------------------------------------|

    
                                                                                                                                                                                                                                                                                                                                                                                                                                                                                                                                                                                                                                                                                                                                                                                                                                                                                                                                                                                                                                                                                                                                                                                              
E|--------------0-----------------------0----------|------------5-----------------------5----------|
B|--2----------------------------------------------|---4--3--1-----4--3--1-----4--3--1-----4--3--1-|
G|-----3--2--0-----3--2--0-----3--2--0-----3--2--0-|-----------------------------------------------|
D|-------------------------------------------------|4-----------------------4----------------------|
A|--------------------------4----------------------|-----------------------------------------------|
E|-------------------------------------------------|-----------------------------------------------|

    
                                                                                                                                                                                                                                                                                                                                                                                                                                                                                                                                                                                                                                                                                                                                                                                                                                                                                                                                                                                                                                                                                                                                                                                              
E|-------------------------------------------------|------------3-----------------------3----------|
B|--0-----------3-----------------------3----------|---2--1--------2--1--------2--1--------2--1----|
G|-----1--0--------1--0--------1--0--------1--0----|---------3-----------3-----------3-----------3-|
D|-----------3-----------3-----------3-----------3-|2-----------------------2----------------------|
A|--------------------------2----------------------|-----------------------------------------------|
E|-------------------------------------------------|-----------------------------------------------|

    
                                                                                                                                                                                                                                                                                                                                                                                                                                                                                                                                                                                                                                                                                                                                                                                                                                                                                                                                                                                                                                                                                                                                                                                              
E|-----------------1----------------------|-----------------------------------------|
B|-----------2--3--------------------0--1-|3--------------------0-------------------|
G|--2--0--2--------------2--1-----2-------|---------------1--2----------------------|
D|-----------------------------0----------|---3--2-----4--------------0-----3--2--0-|
A|----------------------------------------|------------------------4----------------|
E|----------------------------------------|-----------------------------------------|

    
                                                                                                                                                                                                                                                                                                                                                                                                                                                                                                                                                                                                                                                                                                                                                                                                                                                                                                                                                                                                                                                                                                                                                                                              
E|-------------------------------------------------|------------------------------------1--0----|
B|--------------------------------0-----0----------|------1--0--1--------------0--3-----------3-|
G|--------2--1--2--------------1-----2-------------|---2----------------------------------------|
D|-----2-----------2--3--1--2--------------2--3--1-|2--------------2--3--1--2-------------------|
A|--3----------------------------------------------|--------------------------------------------|
E|-------------------------------------------------|--------------------------------------------|

    
                                                                                                                                                                                                                                                                                                                                                                                                                                                                                                                                                                                                                                                                                                                                                                                                                                                                                                                                                                                                                                                                                                                                                                                              
E|-----0--5--7--8--7--------------------3-|1-----------------0--------------1--0----|
B|--1-----------------10----------5--6----|------------1--3-----3-----------------3-|
G|-----------------------7--6-------------|---3--2--2--------------2--1-------------|
D|----------------------------------------|-----------------------------------------|
A|----------------------------------------|-----------------------------------------|
E|----------------------------------------|-----------------------------------------|

    
                                                                                                                                                                                                                                                                                                                                                                                                                                                                                                                                                                                                                                                                                                                                                                                                                                                                                                                                                                                                                                                                                                                                                                                              
E|-----------------1--0-----0--1--0-----0--6--5--4-|5--0--10-8--7--5--5--7--8--5--8--7--5--3-|
B|--1--3--1--0--1--------4-----------4-------------|-----------------------------------------|
G|-------------------------------------------------|-----------------------------------------|
D|-------------------------------------------------|-----------------------------------------|
A|-------------------------------------------------|-----------------------------------------|
E|-------------------------------------------------|-----------------------------------------|

    
                                                                                                                                                                                                                                                                                                                                                                                                                                                                                                                                                                                                                                                                                                                                                                                                                                                                                                                                                                                                                                                                                                                                                                                              
E|--2--3--5--2--5--3--2--0--5----------|4-----------------------------0-----1--0-|
B|-------------------------------------|---------------------0--1--3-----3-------|
G|-------------------------------------|---------------1--2----------------------|
D|-------------------------------------|---------2--4----------------------------|
A|-------------------------------------|-----------------------------------------|
E|-------------------------------------|-----------------------------------------|

    
                                                                                                                                                                                                                                                                                                                                                                                                                                                                                                                                                                                                                                                                                                                                                                                                                                                                                                                                                                                                                                                                                                                                                                                              
E|--------------------------5-----4-|5----------------------|
B|--3--1--0--------------------0----|-----------------------|
G|-----------2--1-------------------|-----------------------|
D|-----------------3--4-------------|-----------------------|
A|----------------------------------|-----------------------|
E|----------------------------------|-----------------------|

About Johann Sebastian Bach - Johann Sebastian Bach is considered one of the greatest composers of all time . He is known for instrumental compositions such as the Brandenburg Concertos and Goldberg Variations . Since the 19th-century Bach Revival he has been regarded as one of Bach's most influential composers . Johann Sebastian was orphaned at age 10 . He lived with his eldest brother Johann Christoph in L√ľneburg, Germany . He continued his musical formation in Lneburg . Bach's family already counted several composers . Bach enriched established German styles through his mastery of counterpoint, harmonic and motivic organisation . He often adopted Lutheran hymns, not only in his larger vocal works, but for instance also in his four-part chorales and his sacred songs .

tabs and chords, guitar tabs, music transcription, music technology, deep learning, music information retrieval, transcribe into tabs & chords, chordify, music renditions, songsterr, reverbnation, tabulature, bollywood chords, ultimate guitar, yousician, guitar lessons, acoustic guitar, electric guitar, guitar tuner, 911 tabs