Guitar Tabs for Butcher

 (h) Hammer On  (.) Palm Mute (") Termelo
 
 140 BPM

Tabs for Song : Butcher

Riff 1n                       
C|--------------------------------------------------------------------
G|--------------------------------------------------------------------
D|--4-----4--5--4--3--------------------------------------------------
A|--4-----4--5--4--3--------------------------3-----3"----------------
F|--2-----2--3--2--1--4--5--4--3--3--4--3--2--3--------2"-3"----4"----
C|--------------------4--5--4--3--3--4--3--2--1--------------1"----3"-
          .  .  .  .  .  .  .  .  .  .  .  .   
C|--------------------------------------------------------------------------
G|--------------------------------------------------------------------------
D|--4-----4--5--4--3--------------------------------------------------------
A|--4-----4--5--4--3--------------------------3-----3--3--3--3--2--2--2--2--
F|--2-----2--3--2--1--4--5--4--3--3--4--3--2--3-----3--3--3--3--2--2--2--2--
C|--------------------4--5--4--3--3--4--3--2--1-----1--1--1--1--0--0--0--0--
          .  .  .  .  .  .  .  .  .  .  .  .        .  .  .  .  .  .  .  .

Riff 2
C|--------------------------------------- x3
G|---------------------------------------
D|--5-----------5------------------------
A|--5-----4-----5--6--5--4--3--33--3--3--
F|--3-----2-----3--4--5--4--3--33--3--3--
C|--------2--------4--3--2--1--11--1--1--
                   .  .  .  .  ..  .  .
C|------------------------------------------------ x1
G|------------------------------------------------
D|--5-----------5---------------------------------
A|--5-----4-----5--3--4--3-----------3--33--3--3--
F|--3-----2-----3--3--4--3--4--3--2--3--33--3--3--
C|--------2-----------------4--3--2--1--11--1--1--
                   .  .  .  .  .  .  .  . . .  .


Riff 3a
C|-----------------------------------------------------------------------------------
G|-----------------------------------------------------------------------------------
D|--6/7\6-6--6--6--------------------------------------------------------------------
A|--6/7\6-6--6--6-----10p7--10p7--10p7--9p6--9p6--9p6--8p5--8p5--8p5--7p4--7p4--7p4--
F|--4/5\4-0--4--4--------------------------------------------------------------------
C|-----------------------------------------------------------------------------------
          .   
          
Riff 3b         
C|--------------------------------------------------
G|--------------------------------------------------
D|--------------------------------------------------
A|--6--7--6--6--6-----6--7--6--6--5--6--5--5--5--6--
F|--6--7--6--6--6-----6--7--6--6--5--6--5--5--5--6--
C|--4--5--4--0--4-----4--5--4--0--3--4--3--0--3--4--
    .  .  .  .        .  .  .  .  .  .  .  .  .  .

Riff 3a
C|-----------------------------------------------------------------------------------
G|-----------------------------------------------------------------------------------
D|--6/7\6-6--6--6--------------------------------------------------------------------
A|--6/7\6-6--6--6-----10p7--10p7--10p7--9p6--9p6--9p6--8p5--8p5--8p5--7p4--7p4--7p4--
F|--4/5\4-0--4--4--------------------------------------------------------------------
C|-----------------------------------------------------------------------------------
          .  

Riff 3c
C|--------------------------------------------  Alternating Riff
G|--------------------------------------------
D|--------------------------------------------
A|--6--7--6--6--6-----66--77--66--55--44--33--
F|--6--7--6--6--6-----66--77--66--55--44--33--
C|--4--5--4--0--4-----44--55--44--33--22--11--
    .  .  .  .  .     ..  ..  ..  ..  ..  ..
    
    
 Riff 5a (used heavily in rest of song)   
C|------------------------------------------------------------
G|------------------------------------------------------------
D|------------------------------------------------------------
A|--3--3--3--3-------------------3--3--3--3-------------------
F|--3--3--3--3--7h8-7h8-6h7-6h7--3--3--3--3--3h4-3h4-2h3-2h3--
C|--1--1--1--1-------------------1--1--1--1-------------------
    .  .  .  .                   .  .  .  .

Riff 5b
C|----------------------------------=------------------
G|-----------------------------------------------------
D|-----------------------------------------------------
A|--3--3--3--3-------------------3-----4-----5-----4---
F|--3--3--3--3--7h8-7h8-6h7-6h7--3-----4-----5-----4---
C|--1--1--1--1-------------------1-----2-----3-----2---
    .  .  .  .                   .     .     .     .


Interlude
C|--------------------------------------------------
G|--------------------------------------------------
D|--------------------------------------------------
A|--3-----3-----3-----3-----2-----2-----2-----2-----
F|--3-----3-----3-----3-----2-----2-----2-----2-----
C|--1-----1-----1-----1-----0-----0-----0-----0-----
    .     .     .     .     .     .     .     .

C|-----------------------------------------------
G|-----------------------------------------------
D|-----------------------------------------------
A|--3-----3-----3-----3-----4-----4-----4-----4--
F|--3-----3-----3-----3-----4-----4-----4-----4--
C|--1-----1-----1-----1-----2-----2-----2-----2--
    .     .     .     .     .     .     .     .


Riff 5a
C|------------------------------------------------------------
G|------------------------------------------------------------
D|------------------------------------------------------------
A|--3-----3--3-------------------3--3--3--3-------------------
F|--3-----3--3--7h8-7h8-6h7-6h7--3--3--3--3--3h4-3h4-2h3-2h3--
C|--1-----1--1-------------------1--1--1--1-------------------
    .     .  .                   .  .  .  .

Riff 5c
C|---------------------------------------------------------
G|---------------------------------------------------------
D|---------------------------------------------------------
A|--3--3--3--3-------------------3--3--3--3---4--4--4--4---
F|--3--3--3--3--7h8-7h8-6h7-6h7--3--3--3--3---4--4--4--4---
C|--1--1--1--1-------------------1--1--1--1---2--2--2--2---
    .  .  .  .                   .  .  .  .   .  .  .  .

Riff 5a
C|------------------------------------------------------------
G|------------------------------------------------------------
D|------------------------------------------------------------
A|--3--3--3--3-------------------3--3--3--3-------------------
F|--3--3--3--3--7h8-7h8-6h7-6h7--3--3--3--3--3h4-3h4-2h3-2h3--
C|--1--1--1--1-------------------1--1--1--1-------------------
    .  .  .  .                   .  .  .  .

 Riff 5d                        This piece is different from initial take
C|-------------------------------------------------------------
G|-------------------------------------------------------------
D|-------------------------------------------------------------
A|--3--3--3--3-------------------4--4--4--4--------------------
F|--3--3--3--3--7h8-7h8-6h7-6h7--4--4--4--4--9h10-9h10-5h6-5h6-
C|--1--1--1--1-------------------2--2--2--2--------------------
    .  .  .  .                   .  .  .  .  

Riff 5a
C|------------------------------------------------------------
G|------------------------------------------------------------
D|------------------------------------------------------------
A|--3--3--3--3-------------------3--3--3--3-------------------
F|--3--3--3--3--7h8-7h8-6h7-6h7--3--3--3--3--3h4-3h4-2h3-2h3--
C|--1--1--1--1-------------------1--1--1--1-------------------
    .  .  .  .                   .  .  .  .

Riff 5e
C|-------------------------------------------------------
G|-------------------------------------------------------
D|-------------------------------------------------------
A|--3--3--3--3-------------------5--5--5--5--4--4--4--4--
F|--3--3--3--3--7h8-7h8-6h7-6h7--5--5--5--5--4--4--4--4--
C|--1--1--1--1-------------------3--3--3--3--2--2--2--2--
    .  .  .  .                   .  .  .  .  .  .  .  .

Outro Riff (4x) Fades out...
C|--------------------------------------------------
G|--------------------------------------------------
D|--------------------------------------------------
A|--3--3--3--3--9--9--9--9--3--3--3--3--7--7--7--7--
F|--3--3--3--3--9--9--9--9--3--3--3--3--7--7--7--7--
C|--1--1--1--1--7--7--7--7--1--1--1--1--5--5--5--5--
    .  .  .  .  .  .  .  .  .  .  .  .  .  .  .  .

tabs and chords, guitar tabs, music transcription, music technology, deep learning, music information retrieval, transcribe into tabs & chords, chordify, music renditions, songsterr, reverbnation, tabulature, bollywood chords, ultimate guitar, yousician, guitar lessons, acoustic guitar, electric guitar, guitar tuner, 911 tabs