Bass Tabs for Bushman - Hear Wah Mi Ah Sah

(/) Slide Up  (\) Slide Down  (h) Hammer On  (p) Pull Off  (b) Bend (r) Release (v) Vibrato (x) Muted

Tabs for Song : 
BPM : 200

INTRO
    Eb       Db Eb 	        Ab       Gb Eb
G|--------------------------------------------------
D|--------------------------------------------------
A|--6--------4--6-----------------------6-----------
E|--------------------------4--------2--------------
B|--------------------------------------------------

VERS
    Eb          Eb                      Ab          Bb
G|--------------------------------------------------------
D|-----------------------8-----8--6-----------------------
A|--6--------6--9-----9--------------9--------------------
E|--------------------------------------4--4--------6--6--
B|--------------------------------------------------------
BRIDGE
    Ab                                              Eb
G|--------------------------------------------------------------------------------------------------
D|--------------------------------------------------------------8--8--8-----------------8--8--8-----
A|--------------6--6--6-----------------6--6--6-----6-----6-----------------6-----6-----------------
E|--4-----4-----------------4-----4-----------------------------------------------------------------
B|--------------------------------------------------------------------------------------------------
    Ab                                              Gb                      Bb
G|--------------------------------------------------------------------------------------------------
D|--------------------------------------------------------------------------------------------------
A|--------------6--6--6-----------------6--6--6-----------------4--4--4-----------------8--8--8-----
E|--4-----4-----------------4-----4-----------------2-----2-----------------6-----6-----------------
B|--------------------------------------------------------------------------------------------------

G|--
D|--
A|--
E|--
B|--
tabs and chords, guitar tabs, music transcription, music technology, deep learning, music information retrieval, transcribe into tabs & chords, chordify, music renditions, songsterr, reverbnation, tabulature, bollywood chords, ultimate guitar, yousician, guitar lessons, acoustic guitar, electric guitar, guitar tuner, 911 tabs