Guitar Tabs for Bury A Friend


E|--------------------------------------------------------------------------------------------------------------
B|--3-----4--3-----1--------------1-----3--1--------------------------1-----------------------------------------
G|-----------------------3--0--------------------3-----2--0-----3--------3-----2-----0--------2-----3--2-----0--
D|--------------------------------------------------------------------------------------4-----------------------
A|--------------------------------------------------------------------------------------------------------------
E|--------------------------------------------------------------------------------------------------------------


E|--------------------------------------------------------------------------------------------------------------
B|--3-----4--3-----1--------------1-----3--1--------------------------1-----------------------------------------
G|-----------------------3--0--------------------3-----2--0-----3--------3-----2-----0--------2-----3--2-----0--
D|--------------------------------------------------------------------------------------4-----------------------
A|--------------------------------------------------------------------------------------------------------------
E|--------------------------------------------------------------------------------------------------------------

E|--------------------------------------------------------------------------------------------------------------------
B|--3-----1-----1-----------------------1-----1-----------1--3-----1-----1--------------1-----1-----------1-----1-----
G|-----------3--------3--------3-----3-----3--------3-----------------3--------3-----3-----3--------3--3-----3-----3--
D|--------------------------------------------------------------------------------------------------------------------
A|--------------------------------------------------------------------------------------------------------------------
E|--------------------------------------------------------------------------------------------------------------------

E|-----------------------------------------------------------------------------------------------------------------------------------
B|-----------3--------1-----1--------3--------------1-----1--------1--3-----1-----1-----------------1-----1-----------1-----1--------
G|--3--------------------3--------3--------3-----3-----3-----3-----------------3--------3-----3--------3--------3--3-----3--------3--
D|-----------------------------------------------------------------------------------------------------------------------------------
A|-----------------------------------------------------------------------------------------------------------------------------------
E|-----------------------------------------------------------------------------------------------------------------------------------

E|-----------------------------------------------------------------------------------------------------------------------------------------------
B|-----------------------------------3-----------------------------------------------------3--------------------------------------3--------------
G|--0--2--0--2--------0--2--0--2-----------0--------0--2--0--2--------0--2--0--2-----0-----------0--2--0--2-----0--2--0--2--------------0--------
D|-----------------------------------------------------------------------------------------------------------------------------------------------
A|-----------------------------------------------------------------------------------------------------------------------------------------------
E|-----------------------------------------------------------------------------------------------------------------------------------------------

E|--------------------------------------------------------------------------------------------------------------------------------------------
B|--------------------------------------3--1--3--4-----3-----3--1--3-----3--1--3-----3--1--3-----4-----3-----3--1--3-----3--1--3-----3--1--3--
G|--0--2--0--2-----3--2--0--0-----0-----------------------------------------------------------------------------------------------------------
D|--------------------------------------------------------------------------------------------------------------------------------------------
A|--------------------------------------------------------------------------------------------------------------------------------------------
E|--------------------------------------------------------------------------------------------------------------------------------------------

E|---------------------------------------------------------------------------------------------------------------
B|--3-----4--3-----1--------------1-----3--1--------------------------1-----------------------------------------
G|-----------------------3--0--------------------3-----2--0-----3--------3-----2-----0--------2-----3--2-----0--
D|--------------------------------------------------------------------------------------4-----------------------
A|--------------------------------------------------------------------------------------------------------------
E|--------------------------------------------------------------------------------------------------------------


E|--------------------------------------------------------------------------------------------------------------
B|--3-----4--3-----1--------------1-----3--1--------------------------1-----------------------------------------
G|-----------------------3--0--------------------3-----2--0-----3--------3-----2-----0--------2-----3--2-----0--
D|--------------------------------------------------------------------------------------4-----------------------
A|--------------------------------------------------------------------------------------------------------------
E|--------------------------------------------------------------------------------------------------------------
--
E|--------------------------------------------------------------------------------------------------------------------
B|--3-----1-----1-----------------------1-----1-----------1--3-----1-----1--------------1-----1-----------1-----1-----
G|-----------3--------3--------3-----3-----3--------3-----------------3--------3-----3-----3--------3--3-----3-----3--
D|--------------------------------------------------------------------------------------------------------------------
A|--------------------------------------------------------------------------------------------------------------------
E|--------------------------------------------------------------------------------------------------------------------


E|-----------------------------------------------------------------------------------------------------------------------------------
B|-----------3--------1-----1--------3--------------1-----1--------1--3-----1-----1-----------------1-----1-----------1-----1--------
G|--3--------------------3--------3--------3-----3-----3-----3-----------------3--------3-----3--------3--------3--3-----3--------3--
D|-----------------------------------------------------------------------------------------------------------------------------------
A|-----------------------------------------------------------------------------------------------------------------------------------
E|-----------------------------------------------------------------------------------------------------------------------------------
 

E|--------------------------------------------------------------------------------------------------------------------------------------------
B|-----------------------------1-----1-----3-----------------------------------1-----1-----3-----------------------------------1-----1-----3--
G|--2--3--2--0--0--0--0--0--0--------------------2--3--2--0--0--0--0--0--0-----------------------2--3--2--0--0--0--0--0--0--------------------
D|--------------------------------------------------------------------------------------------------------------------------------------------
A|--------------------------------------------------------------------------------------------------------------------------------------------
E|--------------------------------------------------------------------------------------------------------------------------------------------
 
 
E|--------------------------------------------3--------3--------------------------------------------------------------------3--5--6--3--3--5--3--
B|-----------------------------------------3--------3--------3--3--4--3--1-----------1-----3-----3--------------------3--3-----------------------
G|--2--3--2--0--0--0--0--0--0--3--2--0-----------------------------------------3--------------2-----2--2-----3--2--0-----------------------------
D|-----------------------------------------------------------------------------------------------------------------------------------------------
A|-----------------------------------------------------------------------------------------------------------------------------------------------
E|-----------------------------------------------------------------------------------------------------------------------------------------------

E|--------------------------------------------
B|--4-----3-----3-----3--3--3-----------------
G|--------------------------------2--3--2--0--
D|--------------------------------------------
A|--------------------------------------------
E|--------------------------------------------

E|-----------------------------------------------------------------------------------------------------------------------------------------------
B|-----------------------------------3-----------------------------------------------------3--------------------------------------3--------------
G|--0--2--0--2--------0--2--0--2-----------0--------0--2--0--2--------0--2--0--2-----0-----------0--2--0--2-----0--2--0--2--------------0--------
D|-----------------------------------------------------------------------------------------------------------------------------------------------
A|-----------------------------------------------------------------------------------------------------------------------------------------------
E|-----------------------------------------------------------------------------------------------------------------------------------------------

E|--------------------------------------------------------------------------------------------------------------------------------------------
B|--------------------------------------3--1--3--4-----3-----3--1--3-----3--1--3-----3--1--3-----4-----3-----3--1--3-----3--1--3-----3--1--3--
G|--0--2--0--2-----3--2--0--0-----0-----------------------------------------------------------------------------------------------------------
D|--------------------------------------------------------------------------------------------------------------------------------------------
A|--------------------------------------------------------------------------------------------------------------------------------------------
E|--------------------------------------------------------------------------------------------------------------------------------------------

E|--------------------------------------------------------------------------------------------------------------
B|--3-----4--3-----1--------------1-----3--1--------------------------1-----------------------------------------
G|-----------------------3--0--------------------3-----2--0-----3--------3-----2-----0--------2-----3--2-----0--
D|--------------------------------------------------------------------------------------4-----------------------
A|--------------------------------------------------------------------------------------------------------------
E|--------------------------------------------------------------------------------------------------------------
--
Use manual mode to free up cursor. Paste any tab in acousterr tab maker and we'll play it !!!
tabs and chords, guitar tabs, music transcription, music technology, deep learning, music information retrieval, transcribe into tabs & chords, chordify, music renditions, songsterr, reverbnation, tabulature, bollywood chords, ultimate guitar, yousician, guitar lessons, acoustic guitar, electric guitar, guitar tuner, 911 tabs